Song name
# A B C D E F G H I J K L M N O P Q R S T U V W X Y Z

Paramore - Still Into You tab

Tabbed By: Reggae Aguilar
Email: torchesthepeople@gmail.com
Facebook: www.facebook.com/themorticiansson

Title: Still Into You
Artist: Paramore
Album: Paramore
Release: March 14 2013

I'm open to suggestions so don't hesitate to leave a comment. We have our own
opinions. Hope You like it!

Tuning: Drop D

1st Verse:

E------------------------------------------------|
B------------------------------------------------|
G------------------------------------------------| CONTINUED...
D-3-------2-3-------2----3--------2-3-------2----|
A-3---0-3---3---0-3---3--3----0-3---3---0-3---3--|
D-3-3-------3-3----------3--3-------3-3----------|

----------------------------------------------------------|
----------------------------------------------------------|
7------------7---------------7------------7---------------| REPEAT 2X
7------------7---------------7------------7---------------|
5-5--0--3--7-5-5--0--3--7--3-5-5--0--3--7-5-5--0--3--7--3-|
----------------------------------------------------------|

Can't count the years one hand
That we've been together
I need the other one to hold you.
Make you feel, make you feel better.
It's not a walk in the park
To love each other.
But when our fingers interlock,
Can't deny, can't deny you're worth it

Refrain: Palm Mute

E----------------------------------|
B----------------------------------|
G----------------------------------|
D-88888888-10101010101010-33333333-|
A-88888888-10101010101010-33333333-|
D-88888888-10101010101010-33333333-|

Cause after all this time.
I'm still into you

Chorus:

E------------------------------------------|
B------------------------------------------|
G------------------------------------------| Repeat this 2X then
D-88888888-10101010101010-3333333333333333-|
A-88888888-10101010101010-3333333333333333-|
D-88888888-10101010101010-3333333333333333-|

I should be over all the butterflies
But i'm into you (I'm in to you)
And baby even on our worst nights
I'm into you (I'm into you)

E------------------------------------------------------|
B------------------------------------------------------|
G-------------------------77777777---------------------|
D-88888888-10101010101010-77777777-33333333-88888888-10|
A-88888888-10101010101010-55555555-33333333-88888888-10|
D-88888888-10101010101010----------33333333-88888888-10|

Let em wonder how we got this far
Cause I don't really need to wonder at all
Yeah after all this time
I'm still into you

Short Version of Verse is Played here:

E------------------------------------------------|
B------------------------------------------------|
G------------------------------------------------|
D-3-------2-3-------2----3--------2-3-------2----|
A-3---0-3---3---0-3---3--3----0-3---3---0-3---3--|
D-3-3-------3-3----------3--3-------3-3----------|

2nd Verse:

E------------------------------------------------|
B------------------------------------------------|
G------------------------------------------------| CONTINUED...
D-3-------2-3-------2----3--------2-3-------2----|
A-3---0-3---3---0-3---3--3----0-3---3---0-3---3--|
D-3-3-------3-3----------3--3-------3-3----------|

----------------------------------------------------------|
----------------------------------------------------------|
7------------7---------------7------------7---------------| REPEAT 2X
7------------7---------------7------------7---------------|
5-5--0--3--7-5-5--0--3--7--3-5-5--0--3--7-5-5--0--3--7--3-|
----------------------------------------------------------|

Recount the night that I first
Met your mother
And on the drive back to my house
I told you that, I told you that I loved ya.
You felt the weight of the world
Fall off your shoulder
And to your favorite song
We sang along to the start of forever

Refrain: Palm Mute

E------------------------------------------|
B------------------------------------------|
G------------------------------------------|
D-88888888-10101010101010-3333333333333333-|
A-88888888-10101010101010-3333333333333333-|
D-88888888-10101010101010-3333333333333333-|

And after all this time.
I'm still into you

Chorus:

E------------------------------------------|
B------------------------------------------|
G------------------------------------------| Repeat this 2X then
D-88888888-10101010101010-3333333333333333-|
A-88888888-10101010101010-3333333333333333-|
D-88888888-10101010101010-3333333333333333-|

I should be over all the butterflies
But i'm into you (I'm in to you)
And baby even on our worst nights
I'm into you (I'm into you)

E--------------------------------------------------------------------|
B--------------------------------------------------------------------|
G-------------------------77777777-----------------------------------|
D-88888888-10101010101010-77777777-33333333-88888888-1010101010101010|
A-88888888-10101010101010-55555555-33333333-88888888-1010101010101010|
D-88888888-10101010101010----------33333333-88888888-1010101010101010|

Let em wonder how we got this far
Cause I don't really need to wonder at all
Yeah after all this time
I'm still into you

Instrumental/Interlude:

E--------------------------------------------|
B--------------------------------------------|
G------------------77777777------------------| REPEAT 4X
D-3333333333333333-77777777-1010101010101010-|
A-3333333333333333-55555555-1010101010101010-|
D-3333333333333333----------1010101010101010-|

THIS IS PLAYED AS WELL ( I'm not sure about this lead part here... )

E---------------------------|
B---------------------------|
G---------------------------|
D---------------------------|
A---8-7-3-----8-7-3-5-5-7-3-|
D-3-------333---------------|

Some things just,
Some things just make sense
And one of those is you and I
Some things just,
Some things just make sense
And even after all this time

Refrain: Palm Mute

E------------------------------------------|
B------------------------------------------|
G------------------------------------------| REPEAT 2X
D-88888888-10101010101010-3333333333333333-|
A-88888888-10101010101010-3333333333333333-|
D-88888888-10101010101010-3333333333333333-|

I'm into You
Baby not a day goes by that
I'm not into you

Chorus:


E------------------------------------------|
B------------------------------------------|
G------------------------------------------| Repeat this 2X then
D-88888888-10101010101010-3333333333333333-|
A-88888888-10101010101010-3333333333333333-|
D-88888888-10101010101010-3333333333333333-|

 should be over all the butterflies
But i'm into you (I'm in to you)
And baby even on our worst nights
I'm into you (I'm into you)

E---------------------------------------------------------------------|
B---------------------------------------------------------------------|
G-------------------------77777777------------------------------------| CONTINUED...
D-88888888-10101010101010-77777777-33333333-88888888-1010101010101010-|
A-88888888-10101010101010-55555555-33333333-88888888-1010101010101010-|
D-88888888-10101010101010----------33333333-88888888-1010101010101010-|

----------------------------------------------------|
----------------------------------------------------|
----------------------------------------------------|
88888888-1010101010101010-88888888-1010101010101010-|
88888888-1010101010101010-88888888-1010101010101010-|
88888888-1010101010101010-88888888-1010101010101010-|


Let em wonder how we got this far
Cause I don't really need to wonder at all
Yeah after all this time
I'm still into you
I'm still into you
I'm still into you

END
Tap to rate this tab
# A B C D E F G H I J K L M N O P Q R S T U V W X Y Z