Song name
# A B C D E F G H I J K L M N O P Q R S T U V W X Y Z

Paramore - Still Into You tab

Paramore's new single Still Into You tabbed by JTSBmusic 

My YouTube: https://www.youtube.com/JTSBmusic

My cover of this song: https://www.youtube.com/watch?v=1Y7mZsWXe_o
 (So you could get an idea how it sounds to)

If you like this tab or my cover on youtube please Sub/like, Thank you =)

Questions: Send me a PM on YouTube and I'll see if I can help you.


Tuning: Drop D

Verse:

E------------------------------------------------|
B------------------------------------------------|
G------------------------------------------------| 
D---------2---------2-------------2---------2----|
A-----0-3-------0-3---3-------0-3-------0-3---3--|
D-3-3-------3-3----------3--3-------3-3----------|

----------------------------------------------------------|
----------------------------------------------------------|
----------------------------------------------------------| REPEAT
----------2------------2--------------2------------2------|   2X
5-5--0--3----5-5--0--3----3-5-5--0--3----5-5--0--3----3---|
----------------------------------------------------------|

Can't count the years one hand
That we've been together
I need the other one to hold you.
Make you feel, make you feel better.
It's not a walk in the park
To love each other.
But when our fingers interlock,
Can't deny, can't deny you're worth it

Pre Chorus: Palm Mute

E------------------------------------|
B------------------------------------|
G------------------------------------|
D-33333333-55555555-1010101010101010-|
A-11111111-33333333-8-8-8-8-8-8-8-8--|
D------------------------------------|

Cause after all this time.
I'm still into you

Chorus:

E------------------------------------|
B---------------------------66666666-|
G-33333333-55555555---------55555555-|  Repeat 
D-33333333-55555555-3333333333333333-|    X2
A-11111111-33333333-3333333333333333-|
D-------------------3333333333333333-|

I should be over all the butterflies
But i'm into you (I'm in to you)
And baby even on our worst nights
I'm into you (I'm into you)


E----------------------------------------------------------|
B---1111--11----1313----13-----1515----15-1111111111111111-|
G---1010--10----1212----12-----1414----14-1010101010101010-|
D-888888888-10101010101010-12121212121212------------------|
A-888888888-10101010101010-12121212121212-8-8-8-8-8-8-8-8--|
D-888888888-10101010101010-12121212121212------------------|


---------------------------|
---------------------------|
---------------------------|
-88888888-10<--------------|
-88888888-10<--------------|
-88888888-10<--------------|

Let em wonder how we got this far
Cause I don't really need to wonder at all
Yeah after all this time
I'm still into you

Short Verse:

E-------------------------------------|
B-------------------------------------|
G-------------------------------------| Fancy slide down to 3rd fret
D---------2---------2-------------2---|
A-----0-3-------0-3---3-------0-3-----|
D-3-3-------3-3----------3--3-------3-|

Verse:

E------------------------------------------------|
B------------------------------------------------|
G------------------------------------------------| 
D---------2---------2-------------2---------2----|
A-----0-3-------0-3---3-------0-3-------0-3---3--|
D-3-3-------3-3----------3--3-------3-3----------|

---------------------------------------------------------|
---------------------------------------------------------|
---------------------------------------------------------| REPEAT
----------2------------2--------------2------------2-----|   2X
5-5--0--3----5-5--0--3----3-5-5--0--3----5-5--0--3----3--|
---------------------------------------------------------|

Recount the night that I first
Met your mother
And on the drive back to my house
I told you that, I told you that I loved ya.
You felt the weight of the world
Fall off your shoulder
And to your favorite song
We sang along to the start of forever


Pre Chorus: Palm Mute

E------------------------------------|
B------------------------------------|
G------------------------------------|
D-33333333-55555555-1010101010101010-|
A-11111111-33333333-8-8-8-8-8-8-8-8--|
D------------------------------------|

And after all this time.
I'm still into you

Chorus:

E------------------------------------|
B---------------------------66666666-|
G-33333333-55555555---------55555555-|  Repeat 
D-33333333-55555555-3333333333333333-|    X2
A-11111111-33333333-3333333333333333-|
D-------------------3333333333333333-|

I should be over all the butterflies
But i'm into you (I'm in to you)
And baby even on our worst nights
I'm into you (I'm into you)

E----------------------------------------------------------|
B---1111--11----1313----13-----1515----15-1111111111111111-|
G---1010--10----1212----12-----1414----14-1010101010101010-|
D-888888888-10101010101010-12121212121212------------------|
A-888888888-10101010101010-12121212121212-8-8-8-8-8-8-8-8--|
D-888888888-10101010101010-12121212121212------------------|


----------------------------|
----------------------------|
----------------------------|
-88888888-1010101010101010<-|
-88888888-1010101010101010<-|
-88888888-1010101010101010<-|

Let em wonder how we got this far
Cause I don't really need to wonder at all
Yeah after all this time
I'm still into you

Instrumental/Interlude:

E------------------------------------|
B------------------------------------|
G------------------------------------| REPEAT
D-----3-2-------3-2------------------|   4X
A---------3---------3------------3---|
D-3-3-------3-3-------0------2-3-----|

Some things just,
Some things just make sense
And one of those is you and I
Some things just,
Some things just make sense
And even after all this time

Pre Chorus: Palm Mute

E------------------------------------|
B------------------------------------|
G------------------------------------| REPEAT
D-33333333-55555555-1010101010101010-|   X2
A-11111111-33333333-8-8-8-8-8-8-8-8--| 
D------------------------------------|

(Alternative) Pre Chorus:

E------------------------------------|
B--6-6-6-6--8-8-8-8---13--13--13--13-|
G-3-3-3-3--5-5-5-5--10--10--10--10---| REPEAT
D------------------------------------|   X2
A------------------------------------|
D------------------------------------|

I'm into You
Baby not a day goes by that
I'm not into you

Chorus:

E------------------------------------|
B---------------------------66666666-|
G-33333333-55555555---------55555555-|  Repeat 
D-33333333-55555555-3333333333333333-|    X2
A-11111111-33333333-3333333333333333-|
D-------------------3333333333333333-|
should be over all the butterflies
But i'm into you (I'm in to you)
And baby even on our worst nights
I'm into you (I'm into you)

E----------------------------------------------------------|
B---1111--11----1313----13-----1515----15-1111111111111111-|
G---1010--10----1212----12-----1414----14-1010101010101010-|
D-888888888-10101010101010-12121212121212------------------|
A-888888888-10101010101010-12121212121212-8-8-8-8-8-8-8-8--|
D-888888888-10101010101010-12121212121212------------------|


-----------------------------------------------------|
-----------------------------------------------------|
-----------------------------------------------------|
-88888888-1010101010101010-88888888-1010101010101010-|
-88888888-1010101010101010-88888888-1010101010101010-|
-88888888-1010101010101010-88888888-1010101010101010-|


--------------------------------|
--------------------------------|
--------------------------------|
-88888888-1010101010101010--(3)-|
-88888888-1010101010101010--(3)-|
-88888888-1010101010101010--(3)-|

Let em wonder how we got this far
Cause I don't really need to wonder at all
Yeah after all this time
I'm still into you
I'm still into you
I'm still into you

END



This is my first tab so bear with me if anything is tabbed a little wrong. :)
Tap to rate this tab
# A B C D E F G H I J K L M N O P Q R S T U V W X Y Z