Song name
# A B C D E F G H I J K L M N O P Q R S T U V W X Y Z

Paramore - Fast In My Car tab

PARAMORE
Fast in my car
Standard tuning
tabbed by: Claire

Intro:
|--0---0---0---0---0---0---|
|--0---0---0---0---0---0---|
|--0---0---0---0---0---0---|
|--0---0---0---0---0---0---|
|--0---0---0---0---0---0---|
|--0---0---0---0---0---0---|

(Riff)
|-------------------|-------------------|
|-------------------|-------------------|
|-------------------|-------------------|
|----------9--------|----------9--------|
|----5----------22--|----5---------252--|
|--3---3-7---7--00--|--3---3-7---7-030--| x2

Verse:
Bass plays the riff
Then guitar plays:
|----3-2---|----3-2---------|----3-2---|----3-2----------|
|--3-----0-|--3-----0---3---|--3-----0-|--3-----0--------|
|----------|----------0---4-|----------|-----------------|
|----------|----------------|----------|-----------------|
|----------|----------------|----------|----------7-10-7-|
|----------|----------------|----------|-----------------|

Chorus:
Guitar 1:
|-----------------------2-3-2----|------------------------2-7--|
|----3-0---3-0----3-0---------3--|----3-0----3-0----3-0--------|
|--0-----00----00-----0----------|--0-----00-----00-----0------|
|--------------------------------|-----------------------------|
|--------------------------------|-----------------------------|
|--------------------------------|-----------------------------|

-----------------------2-3-2----|-------------------------------|
----3-0---3-0----3-0---------3--|----3-0----3-0----3-0-------3--|
--0-----00----00-----0----------|--0-----00-----00-----0-2-4----|
--------------------------------|-------------------------------|
--------------------------------|-------------------------------|
--------------------------------|-------------------------------|

Guitar 2:
|------------------|------------------|
|------------------|------------------|
|------------------|--------------55--|
|--55-599-922-222--|--55-599-922-255--|
|--55-599-922-222--|--55-599-922-233--|
|--33-377-700-000--|--33-377-700-0----| x2

Pre Rit:
|---------------|
|---------------|
|---------------|
|----------9----|
|----5----------|
|--3---3-7---7--|

Verse:
Bass plays the riff
Guitar plays (each note many times, just figure it out)
|-------------------|------17--19------|
|---17--19--20--17--|--17----------17--|
|-------------------|------------------|
|-------------------|------------------|
|-------------------|------------------|
|-------------------|------------------|

Chorus.

Interlude:
|---------------------------------|------------------------------------------|
|---------------------------------|------------------------------------------|
|--22-------22--------------------|------------------------------------------|
|--22-------22-------4------4-44--|----2---2----2---2---2---2----2---2-------|
|--00--12b--00--10b--4--9b--4-44--|----2---2----2---2---2---2----2---2---X2--|
|--------------------2------2-22--|--0---0---00---0---0---0---00---0---------|

|---------------|     |----------------------------------------------------|
|---------------|     |----------------------------------------------------|
|---------------|     |--999911111111121212121414141416161616171717171919--|
|----------9----|     |----------------------------------------------------|
|----5----------|     |----------------------------------------------------|
|--3---3-7---7--| x3  |----------------------------------------------------|

Chorus x2

2nd time Guitar 1 plays (each note many times, just figure it out)
|-------------------|------17--19------|
|---17--19--20--17--|--17----------17--|
|-------------------|------------------|
|-------------------|------------------|
|-------------------|------------------|
|-------------------|------------------|

End:
|-----------------|
|-----------------|
|-----------------|
|----------9------|
|----5------------|
|--3---3-7---7/0--|
Tap to rate this tab
 
# A B C D E F G H I J K L M N O P Q R S T U V W X Y Z