Song name
# A B C D E F G H I J K L M N O P Q R S T U V W X Y Z

Paramore - Native Tongue tab

-------------------------------------------------------------------------------
                             NATIVE TONGUE - Paramore
-------------------------------------------------------------------------------
Tabbed by: boudieboom

Tuning: standard tuning

1st couplet

1st guitar
e|----------------------------------------------------------------------------------|
B|----------------------------------------------------------------------------------|
G|----------------------------------------------------------------------------------|
D|-------------------------4--4-4-4--4--4-4-4--6-4--2--2-2-2-------------4-4-4-4----|
A|-2---2-2-2--2---2-2-2---2--2-2-2--2--2-2-2--4-2--0--0-0-0---2--2-2-2--2-2-2-2-----|
E|-0---0-0-0--0---0-0-0----------------------------------------0--0-0-0-------------|

The second guitar comes in with:

e|xxxx-----------------------------xxxx-------7----------7-7-----|
B|xxxx---7-----9-9------7---9-9---xxxx---7---7------7---7-7------|
G|xxxx---------9-9----------9-9---xxxx-8--8--8--8-8--8--8-8------|
D|xxxx-9----9--9-9---9---9--9-9---xxxx-------9----------9--9-----|
A|xxxx---------7-7----------7-7---xxxx---------------------------|
E|xxxx-----------------------------xxxx--------------------------|

Pre-chorus: A5 (x022xx) and B5 (x244xx)

Chorus (listen to get the timing)

Guitar 1
e|-----------------------|
B|-----------------------|
G|-2-2-----4-4---6---4---|
D|-2-2--2--2-2---4---2---|
A|-0-0--2----------------|
E|------0----------------|

Guitar 2 also plays A and B chords (xx7655 and xx9877)
e|--------------------------------------------------------------------------|
B|-5-5--5--5-5-----------9-7-9-7-9-5----------------------------------------|
G|--6-----6----6-4----------------------------------------------------------|
D|--------------------------------------------------------------------------|
A|--------------------------------------------------------------------------|
E|--------------------------------------------------------------------------|

Couplet 2 same as couplet 1


Pre-chorus 2, first part the same, second part:
e|----------------------------------|
B|----------------------------------|
G|--------11-13---11-13-14--16------|
D|-11--9--11-13---11-13-14-16-------|
A|-11--9---9-11----9-11-12-14-------|
E|--9--7----------------------------|

Played with two guitars, the second guitar plays the same chords lower on the neck (C#5, 
B5, F#5, G#5 and continued with F#5, G#5, A5, B5)

Chorus, second part with longer A chord.

Bridge

e|-------------------------------------------------------------------------------|
B|-------------------------------------------------------------------------------|
G|---6---------4-----------------------------------------------------------------|
D|-2-6--7-6----4--2-4-6-9-7--7-9-------------------------------------------------|
A|-2-4--7-6----2--2-4-6-9-7--7-9-------------------------------------------------|
E|-0----5-4--0----0-2-4-7-5--5-7-------------------------------------------------|

Solo
e|-------------------------------------------------------------------------|
B|-------14------------------14--------------------------------------------|
G|-------------11-13--------------11-13-11-9--------------8-9--------------|
D|-12-12---12---------12-12-----13------------11-11-11-11------------------|
A|------------------------------------------------------------9-9-9-9-9----|
E|-------------------------------------------------------------------------|

e|-----------------------------------------------------------------------------|
B|---------------------------------------9-------------------------------------|
G|-9--9/11--11/16--16\13----9-9-9-9-11-----8-8-8-8-8-8-8-----------------------|
D|-------------------------------------------------------13-11-10-9-9-8-7------|
A|-7--7/9---9/14---14\11-------------------------------------------------------|
E|-----------------------------------------------------------------------------|

Listen to the song to know how to play this part
e|----3----------3-----------------------------------|----------------|
B|----4-----4----4------------9----8-----9-----------|----------------|
G|----------5-----------------9----7-----9-----------|11-13--14-16----|
D|---------------------------------------------------|11-13--14-16----|
A|---------------------------------------------------|9--11--12-14----|
E|-5-5--5-5--5-5--0-0-0--7-7---7-7--7-7---7-7-9-7-5| -----------------|

Then the chorus, and  that's it. Hope you'll like it!
Please rate and comment!


************************************

| /   slide up
| \   slide down
| h   hammer-on
| p   pull-off
| ~   vibrato
| +   harmonic
| x   Mute note
| b   Bend
| pb  Pre-bend
| br  Bend release
| pbr Pre-bend release
| brb Bend release bend

************************************
Tap to rate this tab
 
# A B C D E F G H I J K L M N O P Q R S T U V W X Y Z