Song name
# A B C D E F G H I J K L M N O P Q R S T U V W X Y Z

Paramore - Aint It Fun tab

Paramore - Ain't It Fun
Standard Tuning

Intro
e|-----------------------------------------------------------|
B|-----------------------------------------------------------|
G|4-6---4-6----4-6----4-6---4-6------4-6-6-------------------|
D|----6-----6------6------6-----6----------------------------|
A|-----7-------7-----7-----7------7--------------------------|
E|-----------------------------------------------------------|

Verse
e|--------------------------------------------------------------------|
B|--------------------------------------------------------------------|
G|----4-6----4-6----4-6---4-6-----------------------------------------|
D|--6-----6------6------6-----6------------------------------|repeat--| 4x
A|---7------7------7-----7-----7--------------------------------------|
E|--------------------------------------------------------------------|

Pre-Chorus
e|-----------------------------------------------------------|
B|-----------------------------------------------------------|
G|----4-6----4-6----4-6---4-6--------------------------------|
D|--6-----6------6------6-----6------------------------------|
A|---7------7-----7------7-----------------------------------|
E|-----------------------------------------------------------|

e|-------------------------------------------------------------|
B|-------------------------------------------------------------|
G|----4-6----4-6----4-6---4-6-6--------------------------------|
D|--6-----6------6------6--------------------------------------|
A|---7------7------7-------------------------------------------|
E|-------------------------------------------------------------|

Chorus
e|----------------------------------------------------------------------------|
B|----------------------------------------------------------------------------|
G|----------------------------------------------------------------------------|
D|--77777777--11111111-(11's)--999999--77777777--1111111-(11's)--999999-------|
A|--77777777--11111111-(11's)--999999--77777777--1111111-(11's)--999999-------|
E|--55555555--999999-----------777777--55555555--999999----------777777-------|

Verse
e|-----------------------------------------------------------|
B|-----------------------------------------------------------|
G|----4-6----4-6----4-6---4-6--------------------------------|
D|--6-----6------6------6-----6------------------------------|repeat 4x
A|---7------7------7-----7-----7-----------------------------|
E|-----------------------------------------------------------|

Pre-Chorus
e|-------------------------------------------------------------|
B|-------------------------------------------------------------|
G|----4-6----4-6----4-6---4-6----------------------------------|
D|--6-----6------6------6-----6--------------------------------|
A|---7------7------7-----7-------------------------------------|
E|-------------------------------------------------------------|
Add this after that.
e|------------------------------------------------------|
B|------------------------------------------------------|
G|------------------------------------------------------|
D|-------4-6----4-6---4-6----4-6---4-6------------------|
A|----4-6----4-6---4-6----4-6---4-6---------------------|
E|------------------------------------------------------|
........just mess around :D......

e|-------------------------------------------------------------|
B|-------------------------------------------------------------|
G|----4-6----4-6----4-6---4-6-6--------------------------------|
D|--6-----6------6------6--------------------------------------|
A|---7------7-----7--------------------------------------------|
E|-------------------------------------------------------------|

Another Guitar do this
e|-----7-7-7-7-9-7-7-7-7-9-----------------------------------|
B|-----------------------------------------------------------|
G|-----------------------------------------------------------|
D|-----------------------------------------------------------|Repeat
A|-----------------------------------------------------------|
E|-----------------------------------------------------------|

Then Repeat Chorus
e|-------------------------------------------------------------------------|
B|-------------------------------------------------------------------------|
G|-------------------------------------------------------------------------|
D|--77777777--1111111-(11's)--999999--77777777--1111111-(11's)--999999-----|
A|--77777777--1111111-(11's)--999999--77777777--1111111-(11's)--999999-----|
E|--55555555--999999----------777777--55555555--999999----------777777-----|
lead guitar plays after ...."living in a real world"....
e|------7-----------7-------------7--------------------------|
B|------------9-----------7--------------5-------------------|
G|-----------------------------------------------------------|
D|-----------------------------------------------------------|
A|-----------------------------------------------------------|
E|-----------------------------------------------------------|
Next
...ain't it good to be on your own ........... (just repeat the chords)
e|-----------------------------------------------------------|
B|-----------------------------------------------------------|
G|-----------------------------------------------------------|
D|------77777777--------------111111111----------------------|
A|------77777777--------------111111111----------------------|
E|------55555555--------------99999999-----------------------|

e|-------------------------------------------------------------------------|
B|-------------------------------------------------------------------------|
G|-------------------------------------------------------------------------|
D|--77777777--1111111-(11's)--999999--77777777--1111111-(11's)--999999-----|
A|--77777777--1111111-(11's)--999999--77777777--1111111-(11's)--999999-----|
E|--55555555--999999----------777777--55555555--999999----------777777-----|

Bridge
e|-----------------------------------------------------------|
B|-----------------------------------------------------------|
G|-----------------------------------------------------------|
D|---77777777777777777-------2222222222222222----------------|
A|---77777777777777777-------2222222222222222----------------|
E|---55555555555555555-------0000000000000000----------------|
......................PALM MUTED...............................

CLAP ! CLAP! (YEAH !:D)\m/
then Chorus
After chorus
Then mix the bridge and this.
e|-----7-7-7-7-9-7-7-7-7-9-----------------------------------|
B|-----------------------------------------------------------|
G|-----------------------------------------------------------|
D|-----------------------------------------------------------|Repeat
A|-----------------------------------------------------------|
E|-----------------------------------------------------------|

End. Hope you Like It . If you have any song request . Send it to my gmail.
jp07221@gmail.com (PARAMORE ONLY!!)

PARAMORE ROCKS !!!
Tap to rate this tab
# A B C D E F G H I J K L M N O P Q R S T U V W X Y Z