Song name
# A B C D E F G H I J K L M N O P Q R S T U V W X Y Z

Paramore - Part Ii tab

Paramore - Part II
Tuning: drop D
Tabbed by: Gavin (youtube: crushgav)

Intro 0:09 (distortion, slight delay)
e|----------------------------------------------------------------|
B|------------------------6-6--------------6-6-8------------------|
G|----------------------------9-7--2/5-----------7--14-^14/15-----|
D|--20-20--14/17--------------------------------------------------|
A|----------------------------------------------------------------|
D|----------------------------------------------------------------|

Verse (0:24) 3rd guitar with overdrive      Pre- Chorus (Oh glory..)
e|-------------------------------------------8~-------8~---------|
B|-------------------------------------------10~------10~--------|
G|-------------------------------------------10~------10~--------|
D|-8---10--8--5--3---------------------------8~-------8~---------|
A|-8---10--8--5--3---(2x)----------------------------------------|
D|-6---8---6--3--1-----------------------------------------------|

Chorus (distortion)
e|-------------------------------------------------------------------|
B|-------------------------------------------------------------------|
G|--7--------10-------10-------7-----------7--------10-------7-------|
D|--7-(12x)--8-(12x)--8-(12x)--5-(12x)-----7-(12x)--8--(24x)-5-(12x)-|
A|--5--------8--------8--------5-----------5--------8--------5-------|
D|--------------------8--------5-----------------------------5-------|

e|-----------------|
B|-----------------|
G|-----------------|
D|--20-20--14/17---|
A|-----------------|
D|-----------------|

Verse 3rd guitar with overdrive
e|----------------------------|
B|----------------------------|
G|----------------------------|
D|-8---10--8--5--3------------|
A|-8---10--8--5--3---(2x)-----|
D|-6---8---6--3--1------------|

Chorus (distortion)
e|-------------------------------------------------------------------|
B|-------------------------------------------------------------------|
G|--7--------10-------10-------7-----------7--------10-------7-------|
D|--7-(12x)--8-(12x)--8-(12x)--5-(12x)-----7-(12x)--8--(24x)-5-(12x)-|
A|--5--------8--------8--------5-----------5--------8--------5-------|
D|--------------------8--------5-----------------------------5-------|

Bridge (distortion, slight delay)
e|----------------------------------------------------------------------|
B|--------6-6-8----------------6-6------------6-6-8----------18-17------|
G|--2/5---------7--14-^14/15-------9-7--2/5---------7--14-14------------|
D|----------------------------------------------------------------------|
A|----------------------------------------------------------------------|
D|----------------------------------------------------------------------|

e|----------------------------------------------------------------------|
B|--------6-6-8----------------6-6------------6-6-8----------18-17------|
G|--------------7--14-^14/15-------9-7--2/5---------7--14-14------------|
D|----------------------------------------------------------------------|
A|----------------------------------------------------------------------|
D|----------------------------------------------------------------------|

Bridge guitar I LEAD (distortion, reverb and delay) Fingerpick
e|--------------------------------------------------------------
B|--1515151515151515151515151515151515151515151515151515 etc..
G|--------------------------------------------------------------|
D|--------------------------------------------------------------|
A|--------------------------------------------------------------|
D|--------------------------------------------------------------|

Bridge guitar II RHYTM (distortion, slight delay)
e|-------------------------------|
B|-------------------------------|
G|--7--10--8--5------------------|
D|--7--10--8--5----(4x)----------|
A|--5--10--8--5------------------|
D|-----10--8--5------------------|

Outro 04:10 (distorion, fingerpick quietly)
e|-------------------------------------------------------------------|
B|-------------------------------------------------------------------|
G|-------------------------------------------------------------------|
D|--20202020202020202020202020202020202020202020 etc.-- end with 20~-|
A|-------------------------------------------------------------------|
D|-------------------------------------------------------------------|
Tap to rate this tab
 
# A B C D E F G H I J K L M N O P Q R S T U V W X Y Z