Song name
# A B C D E F G H I J K L M N O P Q R S T U V W X Y Z

Paramore - Part Ii tab

----------------------------------------------------------------------------
                              Part II
                              Paramore
----------------------------------------------------------------------------

Iím not too much for Paramore when it comes to instrumentals but something about this
song really appealed to me. For one, the drums at the end of the song are incredible and
the main guitar riff is pretty fun to play. I tip my hat off to Paramore for this 
impressive song. Enjoy!

Username: dkm817 (same on X box live)
Youtube Cover: http://www.youtube.com/watch?v=lR5CvXp_RVs
Email: guitardrums@rockfan.com

Guitar 1 Rhythmic (D A D G B E)
Guitar 2 Lead     (D A D G B E)

NOTE: This was exported off of guitar pro.


Guitar 1

     S S S S S S S S S S S S S S S S    S S S S S S S S S S S S S S S S
E||----------------------------------|----------------------------------|
B||------3-------3-------3-------3---|------3-------3-------3-------3---|
G||----0---0---0---0---0---0---0---0-|----0---0---0---0---0---0---0---0-|
D||----------------------------------|----------------------------------|
A||--1-------1-------1-------1-------|--1-------1-------3-------3-------|
D||----------------------------------|----------------------------------|


  S S S S S S S S S S S S S S S S    S S S S S S S S S S S S S S  S S
----------------------------------|------6-------6--------------------|
------3-------3-------3-------3---|----------------------5-------10---|
----0---0---0---0---0---0---0---0-|----0---0---0---0---0---0---0----0-|
----------------------------------|--5-------5------------------------|
--1-------1-------1-------1-------|------------------3-------8--------|
----------------------------------|-----------------------------------|


  S S S S S S S S S S S S S S S S    S S S S S S S S S S S S S S S S
----------------------------------|----------------------------------|
------3-------3-------3-------3---|------3-------3-------3-------3---|
----0---0---0---0---0---0---0---0-|----0---0---0---0---0---0---0---0-|
----------------------------------|----------------------------------|
--1-------1-------1-------1-------|--1-------1-------3-------3-------|
----------------------------------|----------------------------------|


  S S S S S S S S S S S S S S S S    S S S S S S S S S S S S S S  S S
----------------------------------|------6-------6--------------------|
------3-------3-------3-------3---|----------------------5-------10---|
----0---0---0---0---0---0---0---0-|----0---0---0---0---0---0---0----0-|
----------------------------------|--5-------5------------------------|
--1-------1-------1-------1-------|------------------3-------8--------|
----------------------------------|-----------------------------------|


  S S S S S S S S S S S S S S S S    S S S S S S S S S S S S S S S S
----------------------------------|----------------------------------|
------3-------3-------3-------3---|------3-------3-------3-------3---|
----0---0---0---0---0---0---0---0-|----0---0---0---0---0---0---0---0-|
----------------------------------|----------------------------------|
--1-------1-------1-------1-------|--1-------1-------3-------3-------|
----------------------------------|----------------------------------|


  S S S S S S S S S S S S S S S S    S S S S S S S S S S S S S S  S S
----------------------------------|------6-------6--------------------|
------3-------3-------3-------3---|----------------------5-------10---|
----0---0---0---0---0---0---0---0-|----0---0---0---0---0---0---0----0-|
----------------------------------|--5-------5------------------------|
--1-------1-------1-------1-------|------------------3-------8--------|
----------------------------------|-----------------------------------|


  S S S S S S S S S S S S S S S S    S S S S S S S S S S S S S S S S
----------------------------------|----------------------------------|
------3-------3-------3-------3---|------3-------3-------3-------3---|
----0---0---0---0---0---0---0---0-|----0---0---0---0---0---0---0---0-|
----------------------------------|----------------------------------|
--1-------1-------1-------1-------|--1-------1-------3-------3-------|
----------------------------------|----------------------------------|


  S S S S S S S S S S S S S S S S    S S S S S S S S S S S S S S  S S
----------------------------------|------6-------6--------------------|
------3-------3-------3-------3---|----------------------5-------10---|
----0---0---0---0---0---0---0---0-|----0---0---0---0---0---0---0----0-|
----------------------------------|--5-------5------------------------|
--1-------1-------1-------1-------|------------------3-------8--------|
----------------------------------|-----------------------------------|


   ^                                        ^
   W                   W                    W
--------------------|-------------------|--------------------|
--10----------------|--L----------------|--10----------------|
--10----------------|--L----------------|--10----------------|
--10----------------|--L----------------|--10----------------|
---8----------------|--L----------------|---8----------------|
---8----------------|--L----------------|---8----------------|


  W                   S S S S S S S S S S S S S S S S
-------------------|----------------------------------|
--L----------------|----------------------------------|
--L----------------|----------------------------------|
--L----------------|--0-0-0-0-0-0-0-0-0-0-0-0-0-0-0-0-|
--L----------------|--0-0-0-0-0-0-0-0-0-0-0-0-0-0-0-0-|
--L----------------|--0-0-0-0-0-0-0-0-0-0-0-0-0-0-0-0-|


  S S S S S S S S S S S S S S S S    S S S S S S S S S S S S S S S S
----------------------------------|----------------------------------|
----------------------------------|----------------------------------|
----------------------------------|--3-3-3-3-3-3-3-3-3-3-3-3-3-3-3-3-|
--3-3-3-3-3-3-3-3-3-3-3-3-3-3-3-3-|--3-3-3-3-3-3-3-3-3-3-3-3-3-3-3-3-|
--3-3-3-3-3-3-3-3-3-3-3-3-3-3-3-3-|--1-1-1-1-1-1-1-1-1-1-1-1-1-1-1-1-|
--3-3-3-3-3-3-3-3-3-3-3-3-3-3-3-3-|----------------------------------|


  S S S S S S S S S S S S S S S S    S S S S S S S S S S S S S S S S
----------------------------------|----------------------------------|
----------------------------------|----------------------------------|
----------------------------------|----------------------------------|
--5-5-5-5-5-5-5-5-5-5-5-5-5-5-5-5-|--0-0-0-0-0-0-0-0-0-0-0-0-0-0-0-0-|
--5-5-5-5-5-5-5-5-5-5-5-5-5-5-5-5-|--0-0-0-0-0-0-0-0-0-0-0-0-0-0-0-0-|
--5-5-5-5-5-5-5-5-5-5-5-5-5-5-5-5-|--0-0-0-0-0-0-0-0-0-0-0-0-0-0-0-0-|


  S S S S S S S S S S S S S S S S    S S S S S S S S S S S S S S S S
----------------------------------|----------------------------------|
----------------------------------|----------------------------------|
----------------------------------|--3-3-3-3-3-3-3-3-3-3-3-3-3-3-3-3-|
--3-3-3-3-3-3-3-3-3-3-3-3-3-3-3-3-|--3-3-3-3-3-3-3-3-3-3-3-3-3-3-3-3-|
--3-3-3-3-3-3-3-3-3-3-3-3-3-3-3-3-|--1-1-1-1-1-1-1-1-1-1-1-1-1-1-1-1-|
--3-3-3-3-3-3-3-3-3-3-3-3-3-3-3-3-|----------------------------------|


  S S S S S S S S S S S S S S S S    S S S S S S S S S S S S S S S S
----------------------------------|----------------------------------|
----------------------------------|------3-------3-------3-------3---|
----------------------------------|----0---0---0---0---0---0---0---0-|
--5-5-5-5-5-5-5-5-5-5-5-5-5-5-5-5-|----------------------------------|
--5-5-5-5-5-5-5-5-5-5-5-5-5-5-5-5-|--1-------1-------1-------1-------|
--5-5-5-5-5-5-5-5-5-5-5-5-5-5-5-5-|----------------------------------|


  S S S S S S S S S S S S S S S S    S S S S S S S S S S S S S S S S
----------------------------------|----------------------------------|
------3-------3-------3-------3---|------3-------3-------3-------3---|
----0---0---0---0---0---0---0---0-|----0---0---0---0---0---0---0---0-|
----------------------------------|----------------------------------|
--1-------1-------3-------3-------|--1-------1-------1-------1-------|
----------------------------------|----------------------------------|


  S S S S S S S S S S S S S S  S S    S S S S S S S S S S S S S S S S
------6-------6--------------------|----------------------------------|
----------------------5-------10---|------3-------3-------3-------3---|
----0---0---0---0---0---0---0----0-|----0---0---0---0---0---0---0---0-|
--5-------5------------------------|----------------------------------|
------------------3-------8--------|--1-------1-------1-------1-------|
-----------------------------------|----------------------------------|


  S S S S S S S S S S S S S S S S    S S S S S S S S S S S S S S S S
----------------------------------|----------------------------------|
------3-------3-------3-------3---|------3-------3-------3-------3---|
----0---0---0---0---0---0---0---0-|----0---0---0---0---0---0---0---0-|
----------------------------------|----------------------------------|
--1-------1-------3-------3-------|--1-------1-------1-------1-------|
----------------------------------|----------------------------------|


  S S S S S S S S S S S S S S  S S    S S S S S S S S S S S S S S S S
------6-------6--------------------|----------------------------------|
----------------------5-------10---|------3-------3-------3-------3---|
----0---0---0---0---0---0---0----0-|----0---0---0---0---0---0---0---0-|
--5-------5------------------------|----------------------------------|
------------------3-------8--------|--1-------1-------1-------1-------|
-----------------------------------|----------------------------------|


  S S S S S S S S S S S S S S S S    S S S S S S S S S S S S S S S S
----------------------------------|----------------------------------|
------3-------3-------3-------3---|------3-------3-------3-------3---|
----0---0---0---0---0---0---0---0-|----0---0---0---0---0---0---0---0-|
----------------------------------|----------------------------------|
--1-------1-------3-------3-------|--1-------1-------1-------1-------|
----------------------------------|----------------------------------|


                                       ^
  S S S S S S S S S S S S S S  S S     W                   W
------6-------6--------------------|--------------------|-------------------|
----------------------5-------10---|--10----------------|--L----------------|
----0---0---0---0---0---0---0----0-|--10----------------|--L----------------|
--5-------5------------------------|--10----------------|--L----------------|
------------------3-------8--------|---8----------------|--L----------------|
-----------------------------------|---8----------------|--L----------------|


  S S S S S S S S S S S S S S S S    S S S S S S S S S S S S S S S S
----------------------------------|----------------------------------|
----------------------------------|----------------------------------|
----------------------------------|----------------------------------|
--0-0-0-0-0-0-0-0-0-0-0-0-0-0-0-0-|--3-3-3-3-3-3-3-3-3-3-3-3-3-3-3-3-|
--0-0-0-0-0-0-0-0-0-0-0-0-0-0-0-0-|--3-3-3-3-3-3-3-3-3-3-3-3-3-3-3-3-|
--0-0-0-0-0-0-0-0-0-0-0-0-0-0-0-0-|--3-3-3-3-3-3-3-3-3-3-3-3-3-3-3-3-|


  S S S S S S S S S S S S S S S S    S S S S S S S S S S S S S S S S
----------------------------------|----------------------------------|
----------------------------------|----------------------------------|
--3-3-3-3-3-3-3-3-3-3-3-3-3-3-3-3-|----------------------------------|
--3-3-3-3-3-3-3-3-3-3-3-3-3-3-3-3-|--5-5-5-5-5-5-5-5-5-5-5-5-5-5-5-5-|
--1-1-1-1-1-1-1-1-1-1-1-1-1-1-1-1-|--5-5-5-5-5-5-5-5-5-5-5-5-5-5-5-5-|
----------------------------------|--5-5-5-5-5-5-5-5-5-5-5-5-5-5-5-5-|


  S S S S S S S S S S S S S S S S    S S S S S S S S S S S S S S S S
----------------------------------|----------------------------------|
----------------------------------|----------------------------------|
----------------------------------|----------------------------------|
--0-0-0-0-0-0-0-0-0-0-0-0-0-0-0-0-|--3-3-3-3-3-3-3-3-3-3-3-3-3-3-3-3-|
--0-0-0-0-0-0-0-0-0-0-0-0-0-0-0-0-|--3-3-3-3-3-3-3-3-3-3-3-3-3-3-3-3-|
--0-0-0-0-0-0-0-0-0-0-0-0-0-0-0-0-|--3-3-3-3-3-3-3-3-3-3-3-3-3-3-3-3-|


  S S S S S S S S S S S S S S S S    S S S S S S S S S S S S S S S S
----------------------------------|----------------------------------|
----------------------------------|----------------------------------|
--3-3-3-3-3-3-3-3-3-3-3-3-3-3-3-3-|----------------------------------|
--3-3-3-3-3-3-3-3-3-3-3-3-3-3-3-3-|--5-5-5-5-5-5-5-5-5-5-5-5-5-5-5-5-|
--1-1-1-1-1-1-1-1-1-1-1-1-1-1-1-1-|--5-5-5-5-5-5-5-5-5-5-5-5-5-5-5-5-|
----------------------------------|--5-5-5-5-5-5-5-5-5-5-5-5-5-5-5-5-|


  W                   W                   W                   W
-------------------|-------------------|-------------------|-------------------|
-------------------|-------------------|-------------------|-------------------|
-------------------|-------------------|-------------------|-------------------|
-------------------|-------------------|-------------------|-------------------|
-------------------|-------------------|-------------------|-------------------|
--0----------------|--L----------------|--L----------------|--L----------------|


-------------------|-------------------|-------------------|-------------------|
-------------------|-------------------|-------------------|-------------------|
-------------------|-------------------|-------------------|-------------------|
-------------------|-------------------|-------------------|-------------------|
-------------------|-------------------|-------------------|-------------------|
-------------------|-------------------|-------------------|-------------------|


  PM   PM PM                  PM   PM PM
  E  S E  E  S E  E  E  E     E  S E  E  S E  E  E  E
---------------------------|---------------------------|
---------------------------|---------------------------|
---------------------------|---------------------------|
---------------------------|---------------------------|
---------------------------|--3----3--3----------------|
--0----0--0----------------|---------------------------|


  PM   PM PM                  PM   PM PM   PM   PM   PM PM PM PM
  E  S E  E  S E  E  E  E     E  S E  E  S S  T S  T S  E  S  S
---------------------------|-------------------------------------|
---------------------------|-------------------------------------|
---------------------------|-------------------------------------|
---------------------------|-------------------------------------|
--1----1--1----------------|-------------------------------------|
---------------------------|--5----5--5----5--L-3--L-5--3--5--3--|


  PM   PM PM                  PM   PM PM
  E  S E  E  S E  E  E  E     E  S E  E  S E  E  E  E
---------------------------|---------------------------|
---------------------------|---------------------------|
---------------------------|---------------------------|
---------------------------|---------------------------|
---------------------------|--3----3--3--L-L--L--L--L--|
--0----0--0--L-L--L--L--L--|---------------------------|


  PM   PM PM                  PM   PM PM
  E  S E  E  S E  E  E  E     E  S E  E  S E  E  E  S S
---------------------------|----------------------------|
---------------------------|----------------------------|
---------------------------|------------------------x-x-|
---------------------------|------------------------x-x-|
--1----1--1--L-L--L--L--L--|------------------------x-x-|
---------------------------|--5----5--5--L-L--L--L------|


  S S S S S S S S S S S S S S S S    S S S S S S S S S S S S S S S S
----------------------------------|----------------------------------|
----------------------------------|----------------------------------|
----------------------------------|--5-5-5-5-5-5-5-5-5-5-5-5-5-5-5-5-|
--0-0-0-0-0-0-0-0-0-0-0-0-0-0-0-0-|--5-5-5-5-5-5-5-5-5-5-5-5-5-5-5-5-|
--0-0-0-0-0-0-0-0-0-0-0-0-0-0-0-0-|--3-3-3-3-3-3-3-3-3-3-3-3-3-3-3-3-|
--0-0-0-0-0-0-0-0-0-0-0-0-0-0-0-0-|----------------------------------|


  S S S S S S S S S S S S S S S S    S S S S S S S S S S S S S S S S
----------------------------------|----------------------------------|
----------------------------------|----------------------------------|
--3-3-3-3-3-3-3-3-3-3-3-3-3-3-3-3-|----------------------------------|
--3-3-3-3-3-3-3-3-3-3-3-3-3-3-3-3-|--5-5-5-5-5-5-5-5-5-5-5-5-5-5-----|
--1-1-1-1-1-1-1-1-1-1-1-1-1-1-1-1-|--5-5-5-5-5-5-5-5-5-5-5-5-5-5-----|
----------------------------------|--5-5-5-5-5-5-5-5-5-5-5-5-5-5-5-3-|


  S S S S S S S S S S S S S S S S    S S S S S S S S S S S S S S S S
----------------------------------|----------------------------------|
----------------------------------|----------------------------------|
----------------------------------|--5-5-5-5-5-5-5-5-5-5-5-5-5-5-5-5-|
--0-0-0-0-0-0-0-0-0-0-0-0-0-0-0-0-|--5-5-5-5-5-5-5-5-5-5-5-5-5-5-5-5-|
--0-0-0-0-0-0-0-0-0-0-0-0-0-0-0-0-|--3-3-3-3-3-3-3-3-3-3-3-3-3-3-3-3-|
--0-0-0-0-0-0-0-0-0-0-0-0-0-0-0-0-|----------------------------------|


  S S S S S S S S S S S S S S S S    S S S S S S S S S S S S S S S S
----------------------------------|----------------------------------|
----------------------------------|----------------------------------|
--3-3-3-3-3-3-3-3-3-3-3-3-3-3-3-3-|----------------------------------|
--3-3-3-3-3-3-3-3-3-3-3-3-3-3-3-3-|--5-5-5-5-5-5-5-5-5-5-5-5-5-5-----|
--1-1-1-1-1-1-1-1-1-1-1-1-1-1-1-1-|--5-5-5-5-5-5-5-5-5-5-5-5-5-5-----|
----------------------------------|--5-5-5-5-5-5-5-5-5-5-5-5-5-5-5-3-|


  S S S S S S S S S S S S S S S S    S S S S S S S S S S S S S S S S
----------------------------------|----------------------------------|
----------------------------------|----------------------------------|
----------------------------------|--5-5-5-5-5-5-5-5-5-5-5-5-5-5-5-5-|
--0-0-0-0-0-0-0-0-0-0-0-0-0-0-0-0-|--5-5-5-5-5-5-5-5-5-5-5-5-5-5-5-5-|
--0-0-0-0-0-0-0-0-0-0-0-0-0-0-0-0-|--3-3-3-3-3-3-3-3-3-3-3-3-3-3-3-3-|
--0-0-0-0-0-0-0-0-0-0-0-0-0-0-0-0-|----------------------------------|


  S S S S S S S S S S S S S S S S    S S S S S S S S S S S S S S S S
----------------------------------|----------------------------------|
----------------------------------|----------------------------------|
--3-3-3-3-3-3-3-3-3-3-3-3-3-3-3-3-|----------------------------------|
--3-3-3-3-3-3-3-3-3-3-3-3-3-3-3-3-|--5-5-5-5-5-5-5-5-5-5-5-5-5-5-----|
--1-1-1-1-1-1-1-1-1-1-1-1-1-1-1-1-|--5-5-5-5-5-5-5-5-5-5-5-5-5-5-----|
----------------------------------|--5-5-5-5-5-5-5-5-5-5-5-5-5-5-5-3-|


  S S S S S S S S S S S S S S S S    S S S S S S S S S S S S S S S S
----------------------------------|----------------------------------|
----------------------------------|----------------------------------|
----------------------------------|--5-5-5-5-5-5-5-5-5-5-5-5-5-5-5-5-|
--0-0-0-0-0-0-0-0-0-0-0-0-0-0-0-0-|--5-5-5-5-5-5-5-5-5-5-5-5-5-5-5-5-|
--0-0-0-0-0-0-0-0-0-0-0-0-0-0-0-0-|--3-3-3-3-3-3-3-3-3-3-3-3-3-3-3-3-|
--0-0-0-0-0-0-0-0-0-0-0-0-0-0-0-0-|----------------------------------|


  S S S S S S S S S S S S S S S S    S S S S S S S S S S S S S S S S
----------------------------------|----------------------------------|
----------------------------------|----------------------------------|
--3-3-3-3-3-3-3-3-3-3-3-3-3-3-3-3-|----------------------------------|
--3-3-3-3-3-3-3-3-3-3-3-3-3-3-3-3-|--5-5-5-5-5-5-5-5-5-5-5-5-5-5-----|
--1-1-1-1-1-1-1-1-1-1-1-1-1-1-1-1-|--5-5-5-5-5-5-5-5-5-5-5-5-5-5-----|
----------------------------------|--5-5-5-5-5-5-5-5-5-5-5-5-5-5-5-3-|


  PM   PM PM                  PM   PM PM
  E  S E  E  S E  E  E  E     E  S E  E  S E  E  E  E
---------------------------|---------------------------|
---------------------------|---------------------------|
---------------------------|---------------------------|
---------------------------|---------------------------|
--1----1--1--L-L--L--L--L--|--1----1--1--L-L--L--L--L--|
---------------------------|---------------------------|


  PM   PM PM                  PM   PM PM
  E  S E  E  S E  E  E  E     E  S E  E  S E  E  E  E
---------------------------|---------------------------|
---------------------------|---------------------------|
---------------------------|---------------------------|
---------------------------|---------------------------|
---------------------------|---------------------------|
--5----5--5--L-L--L--L--L--|--5----5--5--L-L--L--L--L--|


  PM   PM PM                  PM   PM PM
  E  S E  E  S E  E  E  E     E  S E  E  S E  E  E  E
---------------------------|---------------------------|
---------------------------|---------------------------|
---------------------------|---------------------------|
---------------------------|---------------------------|
--1----1--1--L-L--L--L--L--|--1----1--1--L-L--L--L--L--|
---------------------------|---------------------------|


  PM   PM PM                  PM   PM PM
  E  S E  E  S E  E  E  E     E  S E  E  S E  E  E  E     W
---------------------------|---------------------------|-------------------||
---------------------------|---------------------------|-------------------||
---------------------------|---------------------------|-------------------||
---------------------------|---------------------------|-------------------||
---------------------------|---------------------------|-------------------||
--5----5--5--L-L--L--L--L--|--5----5--5--L-L--L--L--L--|--L----------------||


Guitar 2

                                     E  E  S S H        E
E||-------|-------|-------|-------|------------------------|
B||-------|-------|-------|-------|-----6--6-5-------------|
G||-------|-------|-------|-------|------------7--------L--|
D||-------|-------|-------|-------|------------------------|
A||-------|-------|-------|-------|------------------------|
D||-------|-------|-------|-------|------------------------|


  H        E  E  E  E     E  S S S S H        E     E  E   E  E  E  E   E  E
-----------------------|-------------------------|--5--5b--5--5--5--5b--5--5--|
-----------------------|-----6-6-6-8-------------|----------------------------|
--L--------------5--5--|--L----------7--------L--|----------------------------|
-----------7--7--------|-------------------------|----------------------------|
-----------------------|-------------------------|----------------------------|
-----------------------|-------------------------|----------------------------|


   S  S  S  S  S  S  S  S  S  S  S  S  S  S  S  S
--------------------------------------------------|
--------------------------------------------------|
--------------------------------------------------|
--12-12-12-12-12-12-12-12-12-12-12-12-12-12-12-12-|
---8--8--8--8--8--8--8--8--8--8--8--8--8--8--8--8-|
---8--8--8--8--8--8--8--8--8--8--8--8--8--8--8--8-|


   S  S  S  S  S  S  S  S  S  S  S  S  S  S  S  S
--------------------------------------------------|
--------------------------------------------------|
--------------------------------------------------|
--12-12-12-12-12-12-12-12-14-14-14-14-14-14-14-14-|
---8--8--8--8--8--8--8--8-10-10-10-10-10-10-10-10-|
---8--8--8--8--8--8--8--8-10-10-10-10-10-10-10-10-|


   S  S  S  S  S  S  S  S  S  S  S  S  S  S  S  S
--------------------------------------------------|
--------------------------------------------------|
--------------------------------------------------|
--12-12-12-12-12-12-12-12-12-12-12-12-12-12-12-12-|
---8--8--8--8--8--8--8--8--8--8--8--8--8--8--8--8-|
---8--8--8--8--8--8--8--8--8--8--8--8--8--8--8--8-|


   S  S  S  S  S  S  S  S S S S S  S  S  S  S
----------------------------------------------|
--11-11-11-11-11-11-11-11---------10-10-10-10-|
--12-12-12-12-12-12-12-12-9-9-9-9-10-10-10-10-|
--12-12-12-12-12-12-12-12-8-8-8-8-10-10-10-10-|
--10-10-10-10-10-10-10-10-8-8-8-8--8--8--8--8-|
--------------------------8-8-8-8--8--8--8--8-|


   S  S  S  S  S  S  S  S  S  S  S  S  S  S  S  S
--------------------------------------------------|
--------------------------------------------------|
--------------------------------------------------|
--12-12-12-12-12-12-12-12-12-12-12-12-12-12-12-12-|
---8--8--8--8--8--8--8--8--8--8--8--8--8--8--8--8-|
---8--8--8--8--8--8--8--8--8--8--8--8--8--8--8--8-|


   S  S  S  S  S  S  S  S  S  S  S  S  S  S  S  S
--------------------------------------------------|
--------------------------------------------------|
--------------------------------------------------|
--12-12-12-12-12-12-12-12-14-14-14-14-14-14-14-14-|
---8--8--8--8--8--8--8--8-10-10-10-10-10-10-10-10-|
---8--8--8--8--8--8--8--8-10-10-10-10-10-10-10-10-|


   S  S  S  S  S  S  S  S  S  S  S  S  S  S  S  S
--------------------------------------------------|
--------------------------------------------------|
--------------------------------------------------|
--12-12-12-12-12-12-12-12-12-12-12-12-12-12-12-12-|
---8--8--8--8--8--8--8--8--8--8--8--8--8--8--8--8-|
---8--8--8--8--8--8--8--8--8--8--8--8--8--8--8--8-|


                                                  ^
   S  S  S  S  S  S  S  S S S S S  S  S  S  S     W
----------------------------------------------|--------------------|
--11-11-11-11-11-11-11-11---------10-10-10-10-|--10----------------|
--12-12-12-12-12-12-12-12-9-9-9-9-10-10-10-10-|--10----------------|
--12-12-12-12-12-12-12-12-8-8-8-8-10-10-10-10-|--10----------------|
--10-10-10-10-10-10-10-10-8-8-8-8--8--8--8--8-|---8----------------|
--------------------------8-8-8-8--8--8--8--8-|---8----------------|


                       ^
  W                    W                   W
-------------------|--------------------|-------------------|
--L----------------|--10----------------|--L----------------|
--L----------------|--10----------------|--L----------------|
--L----------------|--10----------------|--L----------------|
--L----------------|---8----------------|--L----------------|
--L----------------|---8----------------|--L----------------|


  S S S S S S S S S S S S S S S S    S S S S S S S S  S  S  S  S  S  S  S  S
----------------------------------|------------------------------------------|
----------------------------------|------------------------------------------|
--7-7-7-7-7-7-7-7-5-5-5-7-7-7-7-7-|--9-9-9-9-9-9-9-9-10-10-10-10-10-10-10-10-|
--x-x-x-x-x-x-x-x-x-x-x-x-x-x-x-x-|--x-x-x-x-x-x-x-x--x--x--x--x--x--x--x--x-|
--5-5-5-5-5-5-5-5-3-3-3-5-5-5-5-5-|--7-7-7-7-7-7-7-7--8--8--8--8--8--8--8--8-|
----------------------------------|------------------------------------------|


   S  S  S  S  S  S  S  S  S  S  S  S  S  S  S  S
--------------------------------------------------|
--10-10-10-10-10-10-10-10-11-11-11-11-11-11-11-11-|
---x--x--x--x--x--x--x--x--x--x--x--x--x--x--x--x-|
---7--7--7--7--7--7--7--7--8--8--8--8--8--8--8--8-|
--------------------------------------------------|
--------------------------------------------------|


   S  S  S  S  S  S  S  S  S  S  S  S  S  S  S  S
--------------------------------------------------|
--------------------------------------------------|
--10-10-10-10-10-10-10-10-12-12-12-12-12-12-12-12-|
---x--x--x--x--x--x--x--x--x--x--x--x--x--x--x--x-|
---8--8--8--8--8--8--8--8-10-10-10-10-10-10-10-10-|
--------------------------------------------------|


  S S S S S S S S S S S S S S S S    S S S S S S S S  S  S  S  S  S  S  S  S
----------------------------------|------------------------------------------|
----------------------------------|------------------------------------------|
--7-7-7-7-7-7-7-7-5-5-5-7-7-7-7-7-|--9-9-9-9-9-9-9-9-10-10-10-10-10-10-10-10-|
--x-x-x-x-x-x-x-x-x-x-x-x-x-x-x-x-|--x-x-x-x-x-x-x-x--x--x--x--x--x--x--x--x-|
--5-5-5-5-5-5-5-5-3-3-3-5-5-5-5-5-|--7-7-7-7-7-7-7-7--8--8--8--8--8--8--8--8-|
----------------------------------|------------------------------------------|


   S  S  S  S  S  S  S  S  S  S  S  S  S  S  S  S
--------------------------------------------------|
--13-13-13-13-13-13-13-13-11-11-11-11-11-11-11-11-|
---x--x--x--x--x--x--x--x--x--x--x--x--x--x--x--x-|
--10-10-10-10-10-10-10-10--8--8--8--8--8--8--8--8-|
--------------------------------------------------|
--------------------------------------------------|


   S  S  S  S  S  S  S  S  S  S  S  S  S  S  S  S     W
--------------------------------------------------|--15----------------|
--10-10-10-10-10-10-10-10-------------------------|--------------------|
---x--x--x--x--x--x--x--x-10-10-10-10-10-10-10-10-|--------------------|
---7--7--7--7--7--7--7--7--x--x--x--x--x--x--x--x-|--------------------|
---------------------------8--8--8--8--8--8--8--8-|--------------------|
--------------------------------------------------|--------------------|


  W                   W                   W
--L----------------|--L----------------|--L----------------|
-------------------|-------------------|-------------------|
-------------------|-------------------|-------------------|
-------------------|-------------------|-------------------|
-------------------|-------------------|-------------------|
-------------------|-------------------|-------------------|


   S  S  S  S  S  S  S  S  S  S  S  S  S  S  S  S
--------------------------------------------------|
--------------------------------------------------|
--------------------------------------------------|
--12-12-12-12-12-12-12-12-12-12-12-12-12-12-12-12-|
---8--8--8--8--8--8--8--8--8--8--8--8--8--8--8--8-|
---8--8--8--8--8--8--8--8--8--8--8--8--8--8--8--8-|


   S  S  S  S  S  S  S  S  S  S  S  S  S  S  S  S
--------------------------------------------------|
--------------------------------------------------|
--------------------------------------------------|
--12-12-12-12-12-12-12-12-14-14-14-14-14-14-14-14-|
---8--8--8--8--8--8--8--8-10-10-10-10-10-10-10-10-|
---8--8--8--8--8--8--8--8-10-10-10-10-10-10-10-10-|


   S  S  S  S  S  S  S  S  S  S  S  S  S  S  S  S
--------------------------------------------------|
--------------------------------------------------|
--------------------------------------------------|
--12-12-12-12-12-12-12-12-12-12-12-12-12-12-12-12-|
---8--8--8--8--8--8--8--8--8--8--8--8--8--8--8--8-|
---8--8--8--8--8--8--8--8--8--8--8--8--8--8--8--8-|


   S  S  S  S  S  S  S  S S S S S  S  S  S  S
----------------------------------------------|
--11-11-11-11-11-11-11-11---------10-10-10-10-|
--12-12-12-12-12-12-12-12-9-9-9-9-10-10-10-10-|
--12-12-12-12-12-12-12-12-8-8-8-8-10-10-10-10-|
--10-10-10-10-10-10-10-10-8-8-8-8--8--8--8--8-|
--------------------------8-8-8-8--8--8--8--8-|


   S  S  S  S  S  S  S  S  S  S  S  S  S  S  S  S
--------------------------------------------------|
--------------------------------------------------|
--------------------------------------------------|
--12-12-12-12-12-12-12-12-12-12-12-12-12-12-12-12-|
---8--8--8--8--8--8--8--8--8--8--8--8--8--8--8--8-|
---8--8--8--8--8--8--8--8--8--8--8--8--8--8--8--8-|


   S  S  S  S  S  S  S  S  S  S  S  S  S  S  S  S
--------------------------------------------------|
--------------------------------------------------|
--------------------------------------------------|
--12-12-12-12-12-12-12-12-14-14-14-14-14-14-14-14-|
---8--8--8--8--8--8--8--8-10-10-10-10-10-10-10-10-|
---8--8--8--8--8--8--8--8-10-10-10-10-10-10-10-10-|


   S  S  S  S  S  S  S  S  S  S  S  S  S  S  S  S
--------------------------------------------------|
--------------------------------------------------|
--------------------------------------------------|
--12-12-12-12-12-12-12-12-12-12-12-12-12-12-12-12-|
---8--8--8--8--8--8--8--8--8--8--8--8--8--8--8--8-|
---8--8--8--8--8--8--8--8--8--8--8--8--8--8--8--8-|


                                                  ^
   S  S  S  S  S  S  S  S S S S S  S  S  S  S     W
----------------------------------------------|--------------------|
--11-11-11-11-11-11-11-11---------10-10-10-10-|--10----------------|
--12-12-12-12-12-12-12-12-9-9-9-9-10-10-10-10-|--10----------------|
--12-12-12-12-12-12-12-12-8-8-8-8-10-10-10-10-|--10----------------|
--10-10-10-10-10-10-10-10-8-8-8-8--8--8--8--8-|---8----------------|
--------------------------8-8-8-8--8--8--8--8-|---8----------------|


  W                   S S S S S S S S S S S S S S S S
-------------------|----------------------------------|
--L----------------|----------------------------------|
--L----------------|--7-7-7-7-7-7-7-7-5-5-5-7-7-7-7-7-|
--L----------------|--x-x-x-x-x-x-x-x-x-x-x-x-x-x-x-x-|
--L----------------|--5-5-5-5-5-5-5-5-3-3-3-5-5-5-5-5-|
--L----------------|----------------------------------|


  S S S S S S S S  S  S  S  S  S  S  S  S
------------------------------------------|
------------------------------------------|
--9-9-9-9-9-9-9-9-10-10-10-10-10-10-10-10-|
--x-x-x-x-x-x-x-x--x--x--x--x--x--x--x--x-|
--7-7-7-7-7-7-7-7--8--8--8--8--8--8--8--8-|
------------------------------------------|


   S  S  S  S  S  S  S  S  S  S  S  S  S  S  S  S
--------------------------------------------------|
--10-10-10-10-10-10-10-10-11-11-11-11-11-11-11-11-|
---x--x--x--x--x--x--x--x--x--x--x--x--x--x--x--x-|
---7--7--7--7--7--7--7--7--8--8--8--8--8--8--8--8-|
--------------------------------------------------|
--------------------------------------------------|


   S  S  S  S  S  S  S  S  S  S  S  S  S  S  S  S
--------------------------------------------------|
--------------------------------------------------|
--10-10-10-10-10-10-10-10-12-12-12-12-12-12-12-12-|
---x--x--x--x--x--x--x--x--x--x--x--x--x--x--x--x-|
---8--8--8--8--8--8--8--8-10-10-10-10-10-10-10-10-|
--------------------------------------------------|


  S S S S S S S S S S S S S S S S    S S S S S S S S  S  S  S  S  S  S  S  S
----------------------------------|------------------------------------------|
----------------------------------|------------------------------------------|
--7-7-7-7-7-7-7-7-5-5-5-7-7-7-7-7-|--9-9-9-9-9-9-9-9-10-10-10-10-10-10-10-10-|
--x-x-x-x-x-x-x-x-x-x-x-x-x-x-x-x-|--x-x-x-x-x-x-x-x--x--x--x--x--x--x--x--x-|
--5-5-5-5-5-5-5-5-3-3-3-5-5-5-5-5-|--7-7-7-7-7-7-7-7--8--8--8--8--8--8--8--8-|
----------------------------------|------------------------------------------|


   S  S  S  S  S  S  S  S  S  S  S  S  S  S  S  S
--------------------------------------------------|
--13-13-13-13-13-13-13-13-11-11-11-11-11-11-11-11-|
---x--x--x--x--x--x--x--x--x--x--x--x--x--x--x--x-|
--10-10-10-10-10-10-10-10--8--8--8--8--8--8--8--8-|
--------------------------------------------------|
--------------------------------------------------|


   S  S  S  S  S  S  S  S  S  S  S  S  S  S  S  S    E  E  S S H        E
--------------------------------------------------|------------------------|
--10-10-10-10-10-10-10-10-------------------------|-----6--6-5-------------|
---x--x--x--x--x--x--x--x-10-10-10-10-10-10-10-10-|------------7--------L--|
---7--7--7--7--7--7--7--7--x--x--x--x--x--x--x--x-|------------------------|
---------------------------8--8--8--8--8--8--8--8-|------------------------|
--------------------------------------------------|------------------------|


  H        E  E  E  E     E  S S S S H        E     E  E   E  E  E  E   E  E
-----------------------|-------------------------|--5--5b--5--5--5--5b--5--5--|
-----------------------|-----6-6-6-8-------------|----------------------------|
--L--------------5--5--|--L----------7--------L--|----------------------------|
-----------7--7--------|-------------------------|----------------------------|
-----------------------|-------------------------|----------------------------|
-----------------------|-------------------------|----------------------------|


  E  E  S S H        E     H        E  E  E  E     E  S S S S H        E
--L---------------------|-----------------------|-------------------------|
-----6--6-5-------------|-----------------------|-----6-6-6-8-------------|
------------7--------L--|--L--------------5--5--|--L----------7--------L--|
------------------------|-----------7--7--------|-------------------------|
------------------------|-----------------------|-------------------------|
------------------------|-----------------------|-------------------------|


  E  E   E  E   E   E   E   E     E  E  S S H        E
--5--5b--5--5--13--13--12--12--|--L---------------------|
-------------------------------|-----6--6-5-------------|
-------------------------------|------------7--------L--|
-------------------------------|------------------------|
-------------------------------|------------------------|
-------------------------------|------------------------|


  H        E  E  E  E     E  S S S S H        E     E  E   E  E  E  E   E  E
-----------------------|-------------------------|--5--5b--5--5--5--5b--5--5--|
-----------------------|-----6-6-6-8-------------|----------------------------|
--L--------------5--5--|--L----------7--------L--|----------------------------|
-----------7--7--------|-------------------------|----------------------------|
-----------------------|-------------------------|----------------------------|
-----------------------|-------------------------|----------------------------|


  E  E  S S H        E     H        E  E  E  E     E  S S S S H        E
--L---------------------|-----------------------|-------------------------|
-----6--6-5-------------|-----------------------|-----6-6-6-8-------------|
------------7--------L--|--L--------------5--5--|--L----------7--------L--|
------------------------|-----------7--7--------|-------------------------|
------------------------|-----------------------|-------------------------|
------------------------|-----------------------|-------------------------|


  E  E   E  E   T  T  T  T  T  T  T  T  T  T  T  T  T  T  T  T
--5--5b--5--5--13-13-13-13-13-13-13-13-12-12-12-12-12-12-12-12-|
---------------------------------------------------------------|
---------------------------------------------------------------|
---------------------------------------------------------------|
---------------------------------------------------------------|
---------------------------------------------------------------|


   T  T  T  T  T  T  T  T  T  T  T  T  T  T  T  T  T  T  T  T  T  T  T  T  T  T
--10-10-10-10-10-10-10-10-10-10-10-10-10-10-10-10-10-10-10-10-10-10-10-10-10-10-|
--------------------------------------------------------------------------------|
--------------------------------------------------------------------------------|
--------------------------------------------------------------------------------|
--------------------------------------------------------------------------------|
--------------------------------------------------------------------------------|


   T  T  T  T  T  T  T  T  T  T  T  T  T  T  T  T  T  T  T  T  T  T  T  T  T  T
--10-10-10-10-10-10-10-10-10-10-10-10-10-10-10-10-10-10-10-10-10-10-10-10-10-10-|
--------------------------------------------------------------------------------|
--------------------------------------------------------------------------------|
--------------------------------------------------------------------------------|
--------------------------------------------------------------------------------|
--------------------------------------------------------------------------------|


   T  T  T  T  T  T  T  T  T  T  T  T  T  T  T  T  T  T  T  T  T  T  T  T  T  T
--10-10-10-10-10-10-10-10-10-10-10-10-10-10-10-10-10-10-10-10-10-10-10-10-10-10-|
--------------------------------------------------------------------------------|
--------------------------------------------------------------------------------|
--------------------------------------------------------------------------------|
--------------------------------------------------------------------------------|
--------------------------------------------------------------------------------|


   T  T  T  T  T  T  T  T  T  T  T  T  T  T  T  T  T  T  T  T  T  T  T  T  T   T
--10-10-10-10-10-10-10-10-10-10-10-10-10-10-10-10-10-10-10-10-10-10-10-10-10b-10-|
---------------------------------------------------------------------------------|
---------------------------------------------------------------------------------|
---------------------------------------------------------------------------------|
---------------------------------------------------------------------------------|
---------------------------------------------------------------------------------|


   T  T  T  T  T  T  T  T  T  T  T  T  T  T  T  T  T  T  T  T  T  T  T  T  T  T
--10-10-10-10-10-10-10-10-10-10-10-10-10-10-10-10-10-10-10-10-10-10-10-10-10-10-|
--------------------------------------------------------------------------------|
--------------------------------------------------------------------------------|
--------------------------------------------------------------------------------|
--------------------------------------------------------------------------------|
--------------------------------------------------------------------------------|


   T  T  T  T  T  T  T  T  T  T  T  T  T  T  T  T  T  T  T  T  T  T  T  T  T  T
--10-10-10-10-10-10-10-10-10-10-10-10-10-10-10-10-10-10-10-10-10-10-10-10-10-10-|
--------------------------------------------------------------------------------|
--------------------------------------------------------------------------------|
--------------------------------------------------------------------------------|
--------------------------------------------------------------------------------|
--------------------------------------------------------------------------------|


   T  T  T  T  T  T  T  T  T  T  T  T  T  T  T  T  T  T  T  T  T  T  T  T  T  T
--10-10-10-10-10-10-10-10-10-10-10-10-10-10-10-10-10-10-10-10-10-10-10-10-10-10-|
--------------------------------------------------------------------------------|
--------------------------------------------------------------------------------|
--------------------------------------------------------------------------------|
--------------------------------------------------------------------------------|
--------------------------------------------------------------------------------|


   T  T  T  T  T  T  T  T  T  T  T  T  T  T  T  T  T  T  T  T  T  T  T  T  T  T
--10-10-10-10-10-10-10-10-10-10-10-10-10-10-10-10-13-13-13-13-13-13-13-13-12-12-|
--------------------------------------------------------------------------------|
--------------------------------------------------------------------------------|
--------------------------------------------------------------------------------|
--------------------------------------------------------------------------------|
--------------------------------------------------------------------------------|


   T  T  T  T  T  T  T  T  T  T  T  T  T  T  T  T  T  T  T  T  T  T  T  T  T  T
--10-10-10-10-10-10-10-10-10-10-10-10-10-10-10-10-10-10-10-10-10-10-10-10-10-10-|
--------------------------------------------------------------------------------|
--------------------------------------------------------------------------------|
--------------------------------------------------------------------------------|
--------------------------------------------------------------------------------|
--------------------------------------------------------------------------------|


   T  T  T  T  T  T  T  T  T  T  T  T  T  T  T  T  T  T  T  T  T  T  T  T  T  T
--10-10-10-10-10-10-10-10-10-10-10-10-10-10-10-10-10-10-10-10-10-10-10-10-10-10-|
--------------------------------------------------------------------------------|
--------------------------------------------------------------------------------|
--------------------------------------------------------------------------------|
--------------------------------------------------------------------------------|
--------------------------------------------------------------------------------|


   T  T  T  T  T  T  T  T  T  T  T  T  T  T  T  T  T  T  T  T  T  T  T  T  T  T
--10-10-10-10-10-10-10-10-10-10-10-10-10-10-10-10-10-10-10-10-10-10-10-10-10-10-|
--------------------------------------------------------------------------------|
--------------------------------------------------------------------------------|
--------------------------------------------------------------------------------|
--------------------------------------------------------------------------------|
--------------------------------------------------------------------------------|


   T  T  T  T  T  T  T  T  T  T  T  T  T  T  T  T  T  T  T  T  T  T  T  T  T   T
--10-10-10-10-10-10-10-10-10-10-10-10-10-10-10-10-10-10-10-10-10-10-10-10-10b-10-|
---------------------------------------------------------------------------------|
---------------------------------------------------------------------------------|
---------------------------------------------------------------------------------|
---------------------------------------------------------------------------------|
---------------------------------------------------------------------------------|


   T  T  T  T  T  T  T  T  T  T  T  T  T  T  T  T  T  T  T  T  T  T  T  T  T  T
--10-10-10-10-10-10-10-10-10-10-10-10-10-10-10-10-10-10-10-10-10-10-10-10-10-10-|
--------------------------------------------------------------------------------|
--------------------------------------------------------------------------------|
--------------------------------------------------------------------------------|
--------------------------------------------------------------------------------|
--------------------------------------------------------------------------------|


   T  T  T  T  T  T  T  T  T  T  T  T  T  T  T  T  T  T  T  T  T  T  T  T  T  T
--10-10-10-10-10-10-10-10-10-10-10-10-10-10-10-10-10-10-10-10-10-10-10-10-10-10-|
--------------------------------------------------------------------------------|
--------------------------------------------------------------------------------|
--------------------------------------------------------------------------------|
--------------------------------------------------------------------------------|
--------------------------------------------------------------------------------|


   T  T  T  T  T  T  T  T  T  T  T  T  T  T  T  T  T  T  T  T  T  T  T  T  T  T
--10-10-10-10-10-10-10-10-10-10-10-10-10-10-10-10-10-10-10-10-10-10-10-10-10-10-|
--------------------------------------------------------------------------------|
--------------------------------------------------------------------------------|
--------------------------------------------------------------------------------|
--------------------------------------------------------------------------------|
--------------------------------------------------------------------------------|


   T  T  T  T  T  T  T  T  T  T  T  T  T  T  T  T  T  T  T  T  T  T  T  T  T  T
--10-10-10-10-10-10-10-10-10-10-10-10-10-10-10-10-13-13-13-13-13-13-13-13-12-12-|
--------------------------------------------------------------------------------|
--------------------------------------------------------------------------------|
--------------------------------------------------------------------------------|
--------------------------------------------------------------------------------|
--------------------------------------------------------------------------------|


   W                   W                   W
--------------------|-------------------|-------------------|
--------------------|-------------------|-------------------|
--15----------------|--L----------------|--L----------------|
--------------------|-------------------|-------------------|
--------------------|-------------------|-------------------|
--------------------|-------------------|-------------------|


  W
-------------------|-------------------|-------------------|-------------------|
-------------------|-------------------|-------------------|-------------------|
--L----------------|-------------------|-------------------|-------------------|
-------------------|-------------------|-------------------|-------------------|
-------------------|-------------------|-------------------|-------------------|
-------------------|-------------------|-------------------|-------------------|


-------------------|-------------------||
-------------------|-------------------||
-------------------|-------------------||
-------------------|-------------------||
-------------------|-------------------||
-------------------|-------------------||


Duration Legend
---------------
W - whole
H - half
Q - quarter
E - 8th
S - 16th
T - 32nd
X - 64th
. - note dotted
|-n-|  - n-tuplets


Tablature Legend
----------------
L - tied note
x - dead note
g - grace note
(n) - ghost note
> - accentuded note
NH - natural harmonic
AH - artificial harmonic
TH - tapped harmonic
SH - semi harmonic
PH - pitch harmonic
h - hammer on
p - pull off
b - bend
br - bendRelease
pb - preBend
pbr - preBendRelease
brb - bendReleaseBend
\n/ - tremolo bar dip
\n - tremolo bar dive
-/n - tremolo bar Release up
/n\ - tremolo bar inverted dip
/n - tremolo bar return
-\n - tremolo bar Release down
S - shift slide
s - legato slide
/ -  slide into from below or out of upwards
\ -  slide into from above or out of downwards
~ - vibrato
W - wide vibrato
tr - trill
TP - tremolo picking
T - tapping
S - slap
P - pop
< - fade in
^ - brush up
v - brush down


That is all! I hope this helped, and be sure to check out my cover if you are
having problems with the tab. Thanks, oh and one last thing... ROCK OUT!!!!
Tap to rate this tab
# A B C D E F G H I J K L M N O P Q R S T U V W X Y Z