Song name
# A B C D E F G H I J K L M N O P Q R S T U V W X Y Z

Paramore - Still Into You tab

 Still Into You                                  


                                                                        Paramore
Guitar tab by Kalvin de Melo



     E  Q    E  E  E  E  E     E  Q    E  E  E  E  E   
E||-------------------------|-------------------------|
B||-------------------------|-------------------------|
G||-------------------------|-------------------------|
D||-------------------2-----|-------------------2-----|
A||-------------0--3--------|-------------0--3-----3--|
D||--3-------3--------------|--3-------3--------------|


  E  Q    E  E  E  E  E     E  Q    E  E  E  E  E     E  Q    E  E  E  E  E   
-------------------------|-------------------------|-------------------------|
-------------------------|-------------------------|-------------------------|
-------------------------|-------------------------|-------------------------|
-------------------2-----|-------------------2-----|-------------------2-----|
-------------0--3--------|-------------0--3-----3--|--5-------5--3-----------|
--3-------3--------------|--3-------3--------------|----------------5--------|


  E  Q    E  E  E  E  E     E  Q    E  E  E  E  E     E  Q    E  E  E  E  E   
-------------------------|-------------------------|-------------------------|
-------------------------|-------------------------|-------------------------|
-------------------------|-------------------------|-------------------------|
-------------------2-----|-------------------2-----|-------------------2-----|
--5-------5--3--------3--|--5-------5--3-----------|--5-------5--3--------3--|
----------------5--------|----------------5--------|----------------5--------|


  E  Q    E  E  E  E  E     E  Q    E  E  E  E  E     E  Q    E  E  E  E  E   
-------------------------|-------------------------|-------------------------|
-------------------------|-------------------------|-------------------------|
-------------------------|-------------------------|-------------------------|
-------------------2-----|-------------------2-----|-------------------2-----|
-------------0--3--------|-------------0--3-----3--|-------------0--3--------|
--3-------3--------------|--3-------3--------------|--3-------3--------------|


  E  Q    E  E  E  E  E     E  Q    E  E  E  E  E     E  Q    E  E  E  E  E   
-------------------------|-------------------------|-------------------------|
-------------------------|-------------------------|-------------------------|
-------------------------|-------------------------|-------------------------|
-------------------2-----|-------------------2-----|-------------------2-----|
-------------0--3-----3--|--5-------5--3-----------|--5-------5--3--------3--|
--3-------3--------------|----------------5--------|----------------5--------|


                                                      PM PM PM PM PM PM PM PM  
  E  Q    E  E  E  E  E     E  Q    E  E  E  E  E     E  E  E  E  E  E  E  E   
-------------------------|-------------------------|--------------------------|
-------------------------|-------------------------|--------------------------|
-------------------------|-------------------------|--3--3--3--3--3--3--3--3--|
-------------------2-----|-------------------2-----|--3--3--3--3--3--3--3--3--|
--5-------5--3-----------|--5-------5--3--------3--|--1--1--1--1--1--1--1--1--|
----------------5--------|----------------5--------|--------------------------|


  PM PM PM PM PM PM PM PM     PM  PM  PM  PM  PM  PM  PM  PM  
  E  E  E  E  E  E  E  E      E   E   E   E   E   E   E   E   
--------------------------|----------------------------------|
--------------------------|----------------------------------|
--5--5--5--5--5--5--5--5--|--10--10--10--10--10--10--10--10--|
--5--5--5--5--5--5--5--5--|--10--10--10--10--10--10--10--10--|
--3--3--3--3--3--3--3--3--|---8---8---8---8---8---8---8---8--|
--------------------------|----------------------------------|


   PM  PM                                                                       
   E   E  Q    Q    Q       E  E  E  E  E  E  E  E     E  E  E  E  E  E  E  E   
-------------------------|--------------------------|--------------------------|
-------------------------|--------------------------|--------------------------|
--10--10-----------------|--3--3--3--3--3--3--3--3--|--5--5--5--5--5--5--5--5--|
--10--10-----------------|--3--3--3--3--3--3--3--3--|--5--5--5--5--5--5--5--5--|
---8---8-----------------|--1--1--1--1--1--1--1--1--|--3--3--3--3--3--3--3--3--|
-------------------------|--------------------------|--------------------------|


  E  E  E  E  E  E  E  E     E  E  E  E  E  E  E  E   
--------------------------|--------------------------|
--------------------------|--------------------------|
--------------------------|--------------------------|
--3--3--3--3--3--3--3--3--|--3--3--3--3--3--3--3--3--|
--3--3--3--3--3--3--3--3--|--3--3--3--3--3--3--3--3--|
--3--3--3--3--3--3--3--3--|--3--3--3--3--3--3--3--3--|


  E  E  E  E  E  E  E  E     E  E  E  E  E  E  E  E   
--------------------------|--------------------------|
--------------------------|--------------------------|
--3--3--3--3--3--3--3--3--|--5--5--5--5--5--5--5--5--|
--3--3--3--3--3--3--3--3--|--5--5--5--5--5--5--5--5--|
--1--1--1--1--1--1--1--1--|--3--3--3--3--3--3--3--3--|
--------------------------|--------------------------|


  E  E  E  E  E  E  E  E     E  E  E  E  E  E  E  E   
--------------------------|--------------------------|
--------------------------|--------------------------|
--------------------------|--------------------------|
--3--3--3--3--3--3--3--3--|--3--3--3--3--3--3--3--3--|
--3--3--3--3--3--3--3--3--|--3--3--3--3--3--3--3--3--|
--3--3--3--3--3--3--3--3--|--3--3--3--3--3--3--3--3--|


  E  E  E  E  E  E  E  E     E  E  E  E  E  E  E  E   
--------------------------|--------------------------|
--------------------------|--------------------------|
--3--3--3--3--3--3--3--3--|--5--5--5--5--5--5--5--5--|
--3--3--3--3--3--3--3--3--|--5--5--5--5--5--5--5--5--|
--1--1--1--1--1--1--1--1--|--3--3--3--3--3--3--3--3--|
--------------------------|--------------------------|


  E  E  E  E  E  E  E  E     E  E  E  E  E  E  E  E   
--------------------------|--------------------------|
--------------------------|--------------------------|
--7--7--7--7--7--7--7--7--|--------------------------|
--7--7--7--7--7--7--7--7--|--3--3--3--3--3--3--3--3--|
--5--5--5--5--5--5--5--5--|--3--3--3--3--3--3--3--3--|
--------------------------|--3--3--3--3--3--3--3--3--|


  E  E  E  E  E  E  E  E     Q     Q    Q    Q       E  Q    E  E  E  E  E   
--------------------------|-----------------------|-------------------------|
--------------------------|-----------------------|-------------------------|
--3--3--3--3--3--3--3--3--|--5\-------------------|-------------------------|
--3--3--3--3--3--3--3--3--|--5\-------------------|-------------------2-----|
--1--1--1--1--1--1--1--1--|--3\-------------------|-------------0--3--------|
--------------------------|-----------------------|--3-------3--------------|


  E  Q    E  E  E  E  E     E  Q    E  E  E  E  E     W                 
-------------------------|-------------------------|-------------------|
-------------------------|-------------------------|-------------------|
-------------------------|-------------------------|-------------------|
-------------------2-----|-------------------2-----|-------------------|
-------------0--3-----3--|-------------0--3--------|-------------------|
--3-------3--------------|--3-------3--------------|-------------------|


  E  Q    E  E  E  E  E     E  Q    E  E  E  E  E     E  Q    E  E  E  E  E   
-------------------------|-------------------------|-------------------------|
-------------------------|-------------------------|-------------------------|
-------------------------|-------------------------|-------------------------|
-------------------2-----|-------------------2-----|-------------------2-----|
-------------0--3--------|-------------0--3-----3--|-------------0--3--------|
--3-------3--------------|--3-------3--------------|--3-------3--------------|


  E  Q    E  E  E  E  E     E  Q    E  E  E  E  E     E  Q    E  E  E  E  E   
-------------------------|-------------------------|-------------------------|
-------------------------|-------------------------|-------------------------|
-------------------------|-------------------------|-------------------------|
-------------------2-----|-------------------2-----|-------------------2-----|
-------------0--3-----3--|--5-------5--3-----------|--5-------5--3--------3--|
--3-------3--------------|----------------5--------|----------------5--------|


  E  Q    E  E  E  E  E     E  Q    E  E  E  E  E     E  Q    E  E  E  E  E   
-------------------------|-------------------------|-------------------------|
-------------------------|-------------------------|-------------------------|
-------------------------|-------------------------|-------------------------|
-------------------2-----|-------------------2-----|-------------------2-----|
--5-------5--3-----------|--5-------5--3--------3--|-------------0--3--------|
----------------5--------|----------------5--------|--3-------3--------------|


  E  Q    E  E  E  E  E     E  Q    E  E  E  E  E     E  Q    E  E  E  E  E   
-------------------------|-------------------------|-------------------------|
-------------------------|-------------------------|-------------------------|
-------------------------|-------------------------|-------------------------|
-------------------2-----|-------------------2-----|-------------------2-----|
-------------0--3-----3--|-------------0--3--------|-------------0--3-----3--|
--3-------3--------------|--3-------3--------------|--3-------3--------------|


  E  Q    E  E  E  E  E     E  Q    E  E  E  E  E     E  Q    E  E  E  E  E   
-------------------------|-------------------------|-------------------------|
-------------------------|-------------------------|-------------------------|
-------------------------|-------------------------|-------------------------|
-------------------2-----|-------------------2-----|-------------------2-----|
--5-------5--3-----------|--5-------5--3--------3--|--5-------5--3-----------|
----------------5--------|----------------5--------|----------------5--------|


                            PM PM PM PM PM PM PM PM    PM PM PM PM PM PM PM PM  
  E  Q    E  E  E  E  E     E  E  E  E  E  E  E  E     E  E  E  E  E  E  E  E   
-------------------------|--------------------------|--------------------------|
-------------------------|--------------------------|--------------------------|
-------------------------|--3--3--3--3--3--3--3--3--|--5--5--5--5--5--5--5--5--|
-------------------2-----|--3--3--3--3--3--3--3--3--|--5--5--5--5--5--5--5--5--|
--5-------5--3--------3--|--1--1--1--1--1--1--1--1--|--3--3--3--3--3--3--3--3--|
----------------5--------|--------------------------|--------------------------|


   PM  PM  PM  PM  PM  PM  PM  PM     PM  PM                 
   E   E   E   E   E   E   E   E      E   E  Q    Q    Q     
----------------------------------|-------------------------|
----------------------------------|-------------------------|
--10--10--10--10--10--10--10--10--|--10--10-----------------|
--10--10--10--10--10--10--10--10--|--10--10-----------------|
---8---8---8---8---8---8---8---8--|---8---8-----------------|
----------------------------------|-------------------------|


  E  E  E  E  E  E  E  E     E  E  E  E  E  E  E  E   
--------------------------|--------------------------|
--------------------------|--------------------------|
--3--3--3--3--3--3--3--3--|--5--5--5--5--5--5--5--5--|
--3--3--3--3--3--3--3--3--|--5--5--5--5--5--5--5--5--|
--1--1--1--1--1--1--1--1--|--3--3--3--3--3--3--3--3--|
--------------------------|--------------------------|


  E  E  E  E  E  E  E  E     E  E  E  E  E  E  E  E   
--------------------------|--------------------------|
--------------------------|--------------------------|
--------------------------|--------------------------|
--3--3--3--3--3--3--3--3--|--3--3--3--3--3--3--3--3--|
--3--3--3--3--3--3--3--3--|--3--3--3--3--3--3--3--3--|
--3--3--3--3--3--3--3--3--|--3--3--3--3--3--3--3--3--|


  E  E  E  E  E  E  E  E     E  E  E  E  E  E  E  E   
--------------------------|--------------------------|
--------------------------|--------------------------|
--3--3--3--3--3--3--3--3--|--5--5--5--5--5--5--5--5--|
--3--3--3--3--3--3--3--3--|--5--5--5--5--5--5--5--5--|
--1--1--1--1--1--1--1--1--|--3--3--3--3--3--3--3--3--|
--------------------------|--------------------------|


  E  E  E  E  E  E  E  E     E  E  E  E  E  E  E  E   
--------------------------|--------------------------|
--------------------------|--------------------------|
--------------------------|--------------------------|
--3--3--3--3--3--3--3--3--|--3--3--3--3--3--3--3--3--|
--3--3--3--3--3--3--3--3--|--3--3--3--3--3--3--3--3--|
--3--3--3--3--3--3--3--3--|--3--3--3--3--3--3--3--3--|


  E  E  E  E  E  E  E  E     E  E  E  E  E  E  E  E   
--------------------------|--------------------------|
--------------------------|--------------------------|
--3--3--3--3--3--3--3--3--|--5--5--5--5--5--5--5--5--|
--3--3--3--3--3--3--3--3--|--5--5--5--5--5--5--5--5--|
--1--1--1--1--1--1--1--1--|--3--3--3--3--3--3--3--3--|
--------------------------|--------------------------|


  E  E  E  E  E  E  E  E     E  E  E  E  E  E  E  E   
--------------------------|--------------------------|
--------------------------|--------------------------|
--7--7--7--7--7--7--7--7--|--------------------------|
--7--7--7--7--7--7--7--7--|--3--3--3--3--3--3--3--3--|
--5--5--5--5--5--5--5--5--|--3--3--3--3--3--3--3--3--|
--------------------------|--3--3--3--3--3--3--3--3--|


  E  E  E  E  E  E  E  E     E  E  E  E  E  E  E  E     E  E  E  E  Q    Q     
--------------------------|--------------------------|------------------------|
--------------------------|--------------------------|------------------------|
--3--3--3--3--3--3--3--3--|--5--5--5--5--5--5--5--5--|------------------------|
--3--3--3--3--3--3--3--3--|--5--5--5--5--5--5--5--5--|-----------3--2---------|
--1--1--1--1--1--1--1--1--|--3--3--3--3--3--3--3--3--|-------------------3----|
--------------------------|--------------------------|--3--3--3---------------|


  E  E  E  E  Q    Q       W                   W                 
------------------------|-------------------|-------------------|
------------------------|-------------------|-------------------|
------------------------|-------------------|-------------------|
-----------3--2---------|-------------------|-------------------|
-------------------3----|--5----------------|--3----------------|
--3--3--3---------------|-------------------|-------------------|


  E  E  E  E  Q    Q       E  E  E  E  Q    Q       W                 
------------------------|------------------------|-------------------|
------------------------|------------------------|-------------------|
------------------------|------------------------|-------------------|
-----------3--2---------|-----------3--2---------|-------------------|
-------------------3----|-------------------3----|--5----------------|
--3--3--3---------------|--3--3--3---------------|-------------------|


  W                   E  E  E  E  Q    Q       E  E  E  E  Q    Q     
-------------------|------------------------|------------------------|
-------------------|------------------------|------------------------|
-------------------|------------------------|------------------------|
-------------------|-----------3--2---------|-----------3--2---------|
--3----------------|-------------------3----|-------------------3----|
-------------------|--3--3--3---------------|--3--3--3---------------|


  W                   W                   E  E  E  E  Q    Q     
-------------------|-------------------|------------------------|
-------------------|-------------------|------------------------|
-------------------|-------------------|------------------------|
-------------------|-------------------|-----------3--2---------|
--5----------------|--3----------------|-------------------3----|
-------------------|-------------------|--3--3--3---------------|


  E  E  E  E  Q    Q       W                   W                 
------------------------|-------------------|-------------------|
------------------------|-------------------|-------------------|
------------------------|-------------------|-------------------|
-----------3--2---------|-------------------|-------------------|
-------------------3----|--5----------------|--3----------------|
--3--3--3---------------|-------------------|-------------------|


  PM PM PM PM PM PM PM PM    PM PM PM PM PM PM PM PM  
  E  E  E  E  E  E  E  E     E  E  E  E  E  E  E  E   
--------------------------|--------------------------|
--------------------------|--------------------------|
--3--3--3--3--3--3--3--3--|--5--5--5--5--5--5--5--5--|
--3--3--3--3--3--3--3--3--|--5--5--5--5--5--5--5--5--|
--1--1--1--1--1--1--1--1--|--3--3--3--3--3--3--3--3--|
--------------------------|--------------------------|


   PM  PM  PM  PM  PM  PM  PM  PM     PM  PM  PM  PM  PM  PM  PM  PM  
   E   E   E   E   E   E   E   E      E   E   E   E   E   E   E   E   
----------------------------------|----------------------------------|
----------------------------------|----------------------------------|
--10--10--10--10--10--10--10--10--|--10--10--10--10--10--10--10--10--|
--10--10--10--10--10--10--10--10--|--10--10--10--10--10--10--10--10--|
---8---8---8---8---8---8---8---8--|---8---8---8---8---8---8---8---8--|
----------------------------------|----------------------------------|


  PM PM PM PM PM PM PM PM    PM PM PM PM PM PM PM PM  
  E  E  E  E  E  E  E  E     E  E  E  E  E  E  E  E   
--------------------------|--------------------------|
--------------------------|--------------------------|
--3--3--3--3--3--3--3--3--|--5--5--5--5--5--5--5--5--|
--3--3--3--3--3--3--3--3--|--5--5--5--5--5--5--5--5--|
--1--1--1--1--1--1--1--1--|--3--3--3--3--3--3--3--3--|
--------------------------|--------------------------|


   PM  PM  PM  PM  PM  PM  PM  PM     PM  PM                 
   E   E   E   E   E   E   E   E      E   E  Q    Q    Q     
----------------------------------|-------------------------|
----------------------------------|-------------------------|
--10--10--10--10--10--10--10--10--|--10--10-----------------|
--10--10--10--10--10--10--10--10--|--10--10-----------------|
---8---8---8---8---8---8---8---8--|---8---8-----------------|
----------------------------------|-------------------------|


  E  E  E  E  E  E  E  E     E  E  E  E  E  E  E  E   
--------------------------|--------------------------|
--------------------------|--------------------------|
--3--3--3--3--3--3--3--3--|--5--5--5--5--5--5--5--5--|
--3--3--3--3--3--3--3--3--|--5--5--5--5--5--5--5--5--|
--1--1--1--1--1--1--1--1--|--3--3--3--3--3--3--3--3--|
--------------------------|--------------------------|


  E  E  E  E  E  E  E  E     E  E  E  E  E  E  E  E   
--------------------------|--------------------------|
--------------------------|--------------------------|
--------------------------|--------------------------|
--3--3--3--3--3--3--3--3--|--3--3--3--3--3--3--3--3--|
--3--3--3--3--3--3--3--3--|--3--3--3--3--3--3--3--3--|
--3--3--3--3--3--3--3--3--|--3--3--3--3--3--3--3--3--|


  E  E  E  E  E  E  E  E     E  E  E  E  E  E  E  E   
--------------------------|--------------------------|
--------------------------|--------------------------|
--3--3--3--3--3--3--3--3--|--5--5--5--5--5--5--5--5--|
--3--3--3--3--3--3--3--3--|--5--5--5--5--5--5--5--5--|
--1--1--1--1--1--1--1--1--|--3--3--3--3--3--3--3--3--|
--------------------------|--------------------------|


  E  E  E  E  E  E  E  E     E  E  E  E  E  E  E  E   
--------------------------|--------------------------|
--------------------------|--------------------------|
--------------------------|--------------------------|
--3--3--3--3--3--3--3--3--|--3--3--3--3--3--3--3--3--|
--3--3--3--3--3--3--3--3--|--3--3--3--3--3--3--3--3--|
--3--3--3--3--3--3--3--3--|--3--3--3--3--3--3--3--3--|


  E  E  E  E  E  E  E  E     E  E  E  E  E  E  E  E   
--------------------------|--------------------------|
--------------------------|--------------------------|
--3--3--3--3--3--3--3--3--|--5--5--5--5--5--5--5--5--|
--3--3--3--3--3--3--3--3--|--5--5--5--5--5--5--5--5--|
--1--1--1--1--1--1--1--1--|--3--3--3--3--3--3--3--3--|
--------------------------|--------------------------|


  E  E  E  E  E  E  E  E     E  E  E  E  E  E  E  E   
--------------------------|--------------------------|
--------------------------|--------------------------|
--7--7--7--7--7--7--7--7--|--------------------------|
--7--7--7--7--7--7--7--7--|--3--3--3--3--3--3--3--3--|
--5--5--5--5--5--5--5--5--|--3--3--3--3--3--3--3--3--|
--------------------------|--3--3--3--3--3--3--3--3--|


  E  E  E  E  E  E  E  E     E  E  E  E  E  E  E  E   
--------------------------|--------------------------|
--------------------------|--------------------------|
--3--3--3--3--3--3--3--3--|--5--5--5--5--5--5--5--5--|
--3--3--3--3--3--3--3--3--|--5--5--5--5--5--5--5--5--|
--1--1--1--1--1--1--1--1--|--3--3--3--3--3--3--3--3--|
--------------------------|--------------------------|


  E  E  E  E  E  E  E  E     E  E  E  E  E  E  E  E   
--------------------------|--------------------------|
--------------------------|--------------------------|
--3--3--3--3--3--3--3--3--|--5--5--5--5--5--5--5--5--|
--3--3--3--3--3--3--3--3--|--5--5--5--5--5--5--5--5--|
--1--1--1--1--1--1--1--1--|--3--3--3--3--3--3--3--3--|
--------------------------|--------------------------|


  E  E  E  E  E  E  E  E     E  E  E  E  E  E  E  E            
--------------------------|--------------------------|-------||
--------------------------|--------------------------|-------||
--3--3--3--3--3--3--3--3--|--5--5--5--5--5--5--5--5--|-------||
--3--3--3--3--3--3--3--3--|--5--5--5--5--5--5--5--5--|-------||
--1--1--1--1--1--1--1--1--|--3--3--3--3--3--3--3--3--|-------||
--------------------------|--------------------------|-------||




Duration Legend
---------------
W - whole
H - half
Q - quarter
E - 8th
S - 16th
T - 32nd
X - 64th
. - note dotted
|-n-|  - n-tuplets


Tablature Legend
----------------
L - tied note
x - dead note
g - grace note
(n) - ghost note
> - accentuded note
NH - natural harmonic
AH - artificial harmonic
TH - tapped harmonic
SH - semi harmonic
PH - pitch harmonic
h - hammer on
p - pull off
b - bend
br - bendRelease
pb - preBend
pbr - preBendRelease
brb - bendReleaseBend
\n/ - tremolo bar dip
\n - tremolo bar dive
-/n - tremolo bar Release up
/n\ - tremolo bar inverted dip
/n - tremolo bar return
-\n - tremolo bar Release down
S - shift slide
s - legato slide
/ -  slide into from below or out of upwards
\ -  slide into from above or out of downwards
~ - vibrato
W - wide vibrato
tr - trill
TP - tremolo picking
T - tapping
S - slap
P - pop
< - fade in
^ - brush up
v - brush down
Tap to rate this tab
 
# A B C D E F G H I J K L M N O P Q R S T U V W X Y Z