Song name
# A B C D E F G H I J K L M N O P Q R S T U V W X Y Z

Paramore - Still Into You tab

"Still Into You"
Paramore
(Album: Paramore -- Released April 9th, 2013)

Standard Tuning (EADGBe)

VERSE 1:
--------------------------------------------------------------|
--------------------------------------------------------------|
--------------------------------------------------------------|
----------------------2----------------------------2----------|
-----------------3----------------------------3--------3------|
--1-----1---5------------------1-----1---5--------------------|

--------------------------------------------------------------|
--------------------------------------------------------------|
--------------------------------------------------------------|
----------------------2----------------------------2----------|
-----------------3----------------------------3--------3------|
--1-----1---5------------------1-----1---5--------------------|

-------------------------------------------------------------|
-------------------------------------------------------------|
-------------------------------------------------------------|
--0-----0-------------2--------0------0------------2---------|
-----------------3-----------------------------3-------3-----|
------------5------------------------------5-----------------|

-------------------------------------------------------------|
-------------------------------------------------------------|
-------------------------------------------------------------|
--0-----0-------------2--------0------0------------2---------|
-----------------3-----------------------------3-------3-----|
------------5------------------------------5-----------------|  (x2)

PRE-CHORUS (palm muted):
                               Bb            C           F
'Cause after all this time,  I'm still into you


CHORUS:
                                     Bb          C             F
I should be over all the butterflies, I'm into you (I'm into you)
                                    Bb           C               F
And baby, even on our worst nights, I'm into you (I'm into you)
                                     Bb          C                Dm         F
Let 'em wonder how we got this far, 'cause I don't really need to wonder at all
                           Bb            C
And after all this time, I'm still into you


--------------------------------------------------------------|
--------------------------------------------------------------|
--------------------------------------------------------------|
----------------------2----------------------------2----------|
-----------------3----------------------------3--------3------|
--1-----1---5------------------1-----1---5--------------------|

--------------------------------------------------------------|
--------------------------------------------------------------|
--------------------------------------------------------------|
----------------------2----------------------------2----------|
-----------------3----------------------------3--------3------|
--1-----1---5------------------1-----1---5--------------------|

VERSE 2:
--------------------------------------------------------------|
--------------------------------------------------------------|
--------------------------------------------------------------|
----------------------2----------------------------2----------|
-----------------3----------------------------3--------3------|
--1-----1---5------------------1-----1---5--------------------|

--------------------------------------------------------------|
--------------------------------------------------------------|
--------------------------------------------------------------|
----------------------2----------------------------2----------|
-----------------3----------------------------3--------3------|
--1-----1---5------------------1-----1---5--------------------|

-------------------------------------------------------------|
-------------------------------------------------------------|
-------------------------------------------------------------|
--0-----0-------------2--------0------0------------2---------|
-----------------3-----------------------------3-------3-----|
------------5------------------------------5-----------------|

-------------------------------------------------------------|
-------------------------------------------------------------|
-------------------------------------------------------------|
--0-----0-------------2--------0------0------------2---------|
-----------------3-----------------------------3-------3-----|
------------5------------------------------5-----------------|

--------------------------------------------------------------|
--------------------------------------------------------------|
--------------------------------------------------------------|
----------------------2----------------------------2----------|
-----------------3----------------------------3--------3------|
--1-----1---5------------------1-----1---5--------------------|

--------------------------------------------------------------|
--------------------------------------------------------------|
--------------------------------------------------------------|
----------------------2----------------------------2----------|
-----------------3----------------------------3--------3------|
--1-----1---5------------------1-----1---5--------------------|

-------------------------------------------------------------|
-------------------------------------------------------------|
-------------------------------------------------------------|
--0-----0-------------2--------0------0------------2---------|
-----------------3-----------------------------3-------3-----|
------------5------------------------------5-----------------|

-------------------------------------------------------------|
-------------------------------------------------------------|
-------------------------------------------------------------|
--0-----0-------------2--------0------0------------2---------|
-----------------3-----------------------------3-------3-----|
------------5------------------------------5-----------------|


PRE-CHORUS (palm muted):
                               Bb            C           F
'Cause after all this time,  I'm still into you


CHORUS:
                                     Bb          C             F
I should be over all the butterflies, I'm into you (I'm into you)
                                    Bb           C               F
And baby, even on our worst nights, I'm into you (I'm into you)
                                     Bb          C                Dm         F
Let 'em wonder how we got this far, 'cause I don't really need to wonder at all
                           Bb            C
And after all this time, I'm still into you


BRIDGE:
---------------------------------------------------------------------|
---------------------------------------------------------------------|
---------------------------------------------------------------------|
----------3---2-----------------3--2-------------0-------------------|
-------------------3-------------------3-------------------------3---|
--1-----------------------1------------------------------0---1-------|  (x4)


PRE-CHORUS 2 (palm muted):

             Bb      C              F
                           I'm into you
                   Bb                           C        F
Baby, not a day goes by that I'm not into you


CHORUS:
                                     Bb          C             F
I should be over all the butterflies, I'm into you (I'm into you)
                                    Bb           C               F
And baby, even on our worst nights, I'm into you (I'm into you)
                                     Bb          C                Dm         F
Let 'em wonder how we got this far, 'cause I don't really need to wonder at all
                           Bb            C           Bb
And after all this time, I'm still into you
       C          Bb
I'm still into you
       C
I'm still into you



Hope you enjoy this tab and playing it!
Comments and ratings are welcome!
Tap to rate this tab
 
# A B C D E F G H I J K L M N O P Q R S T U V W X Y Z