Song name
# A B C D E F G H I J K L M N O P Q R S T U V W X Y Z

Paramore - Future tab

Hey guys! This is Future by Paramore off of their Self Titled Album PARAMORE :D

This is the chords and riff.


If you would like you can play with a CAPO ON THIRD FRET! 
(tab relative to capo)

Intro:

|------------------|------------------|------------------|------------------|
|------------------|------------------|------------------|------------------|
|------------------|------------------|------------------|------------------|
|----0---0---0---0-|----0---0---0---0-|----0---0---0---0-|----0---0---0---0-|
|--0---0---0---0---|--2---2---2---2---|------------------|------------------|
|------------------|------------------|--3---3---3---3---|--3---3---3---3---|

|------------------|------------------|------------------|------------------|
|------------------|------------------|------------------|------------------|
|------------------|------------------|------------------|------------------|
|----0---0---0---0-|----0---0---0---0-|----0---0---0---0-|----0---0---0---0-|
|------------------|------------------|--2---2---2---2---|--4---4---4---4---|
|--2---2---2---2---|--3---3---3---3---|------------------|------------------|

I'm writing the future,
I'm writing it out, loud.
We don't talk about the past,
We don't talk about the past, now.

So, I'm writing the future,
I'm leaving a key here.
Something won't always be missing,
You won't always feel emptier.


Chords come in at this point:
E|--------------|--------------|--------------|--------------|
B|--------------|--------------|--------------|--------------|
G|--3--3--3--3--|--3--3--3--3--|--3--3--3--3--|--3--3--3--3--|
D|--3--3--3--3--|--3--3--3--3--|--3--3--3--3--|--3--3--3--3--|
A|--1--1--1--1--|--1--1--1--1--|--0--0--0--0--|--0--0--0--0--|
E|--------------|--------------|--------------|--------------|

E|--------------|--------------|--------------|--------------|
B|--------------|--------------|--------------|--------------|
G|--3--3--3--3--|--3--3--3--3--|--3--3--3--3--|--3--3--3--3--|
D|--3--3--3--3--|--3--3--3--3--|--3--3--3--3--|--3--3--3--3--|
A|--x--x--x--x--|--x--x--x--x--|--x--x--x--x--|--x--x--x--x--|
E|--3--3--3--3--|--3--3--3--3--|--3--3--3--3--|--3--3--3--3--|


Lead guitar (when the song builds) :| = repeat

E|--12--12--12--12--:|--13--13--13--13--:|--15--15--15--15--:|--17--17--17--17--:|
B|------------------:|------------------:|------------------:|------------------:|
G|------------------:|------------------:|------------------:|------------------:|
D|------------------:|------------------:|------------------:|------------------:|
A|------------------:|------------------:|------------------:|------------------:|
E|------------------:|------------------:|------------------:|------------------:|

E|--12--12--12--12--:|--13--13--13--13--:|--10--10--10--10--:|--10(b)--10(b)--10(b)--10(b)--:|
B|------------------:|------------------:|------------------:|------------------------------:|
G|------------------:|------------------:|------------------:|------------------------------:|
D|------------------:|------------------:|------------------:|------------------------------:|
A|------------------:|------------------:|------------------:|------------------------------:|
E|------------------:|------------------:|------------------:|------------------------------:|

Future by Paramore (Paramore)

YouTube Tutorials: 
(intro) http://www.youtube.com/watch?v=oVOgmuNXZ8M&feature=youtu.be
(chords)http://www.youtube.com/watch?v=VajzUf0IUUY&feature=youtu.be

Peace and Love, 
Jacqueline Anne :)
Tap to rate this tab
# A B C D E F G H I J K L M N O P Q R S T U V W X Y Z