Song name
# A B C D E F G H I J K L M N O P Q R S T U V W X Y Z

Paramore - One Of Those Crazy Girls tab

Enjoy this tab for great song , coment and rate please.


Standart Tuning :

**Verse** :

First Part :

e|------------------------6-6---6------4-4-x-4----7-7-x-7---|
B|------11--11-x-11-------7-7-x-7------4-4-x-4----7-7-x-7---|
G|------11--11-x-11-------8-8-x-8------4-4-x-4----8-8-x-8---|
D|------11--11-x-11-------8-8-x-8------6-6-x-6----9-9-x-9---|
A|---9-----------------6---------------6-6-x-6----9-9-x-9---|
E|----------------------------------4-----------7-----------|

Part 2:

e|-------------------------------------6-6-x-6----7-7-x-7---|
B|------11--11-x-11-------6-6-x-6------6-6-x-6----7-7-x-7---|
G|------11--11-x-11-------6-6-x-6------7-7-x-7----8-8-x-8---|
D|------11--11-x-11-------6-6-x-6------8-8-x-8----9-9-x-9---|
A|---9-----------------4---------------8-8-x-8----9-9-x-9---|
E|----------------------------------6-----------7-----------|

Reapse Verse 2 times then 

Pre chorus :

Not 100% sure , But it's Close

e|-----------------------------------------|
B|-------------------------11----------11--|
G|-------------------------11----------11--|
D|----11--11-11-~---12--12-12---13--13-13--|  x2
A|-----------------------------------------|
E|-----------------------------------------|   


Then Verse Again With Distortion:

First Part :

e|---------------------6-6--6------4-4--4----7-7--7---|
B|----11--11--11-------7-7--7------4-4--4----7-7--7---|
G|----11--11--11-------8-8--8------4-4--4----8-8--8---|
D|----11--11--11-------8-8--8------6-6--6----9-9--9---|
A|--- 9---9---9--------6-6--6--- --6-6--6----9-9--9---|
E|---------------------------------4-4--4----7-7--7---|

Part 2:

e|-----------------------------------6-6--6----7-7--7---|
B|------11--11--11-------6-6--6------6-6--6----7-7--7---|
G|------11--11--11-------6-6--6------7-7--7----8-8--8---|
D|------11--11--11-------6-6--6------8-8--8----9-9--9---|
A|------9---9----9-------4-4--4------8-8--8----9-9--9---|
E|-----------------------------------6-6--6----7-7--7---|



Pre Chors x2


Guitar Solo :

e|-----------------------------------------------------------------------|
B|-----------------------------------------------------------------------|
G|-----------------------------11-10--9h11-8v---------------10-8--8------|
D|----slide----s8-9--11--9--8---------------------6-8-9-8-6----------11--|
A|-----------------------------------------------------------------------|
E|-----------------------------------------------------------------------|


Continued:

e|--------------------------------------------------------------------------|
B|-----------------------------------11v----12-12-11-9h11p9---9-9-----------|
G|----------11-v--11--------11--10-8-----------------------11----11-10hp10--|
D|-8h11p8---11-v-----8--11------------------------------------------------11|
A|--------------------------------------------------------------------------|
E|--------------------------------------------------------------------------|

Then:

e|------------------------6-6---6----|
B|------11--11-x-11-------7-7-x-7----|
G|------11--11-x-11-------8-8-x-8----|    x4
D|------11--11-x-11-------8-8-x-8----|
A|---9-----------------6-------------|
E|-----------------------------------|   


e|-----------------------------|
B|-----------------------------|
G|-----------------------------|
D|-----------------------------|
A|-----------------------------|
E|----4-4--6-6-7-7-9-9-11-11v--|


The Chours like this:

e|--------------------6------7-------|
B|----11------6-------7------7-------|   
G|----11------6-------8------8-------|  x2
D|----11--x4--6---x4--8--x4--9--x4---|
A|----9-------4-------6------9-------|
E|---------------------------7-------|


Last Time:
e|--------------------6------7-------|
B|----11------6-------6------7-------|   
G|----11------6-------7------8-------|  x1
D|----11--x4--6---x4--8--x4--9--x4---|
A|----9-------4-------8------9-------|
E|--------------------6------7-------|


e|--------------------6------7-------|
B|----11------6-------7------7-------|   
G|----11------6-------8------8-------|  
D|----11--x4--6---x4--8--x4--9--x4---|
A|----9-------4-------6------9-------|
E|---------------------------7-------|

End With:

e|------------------------6-6---6----|
B|------11--11-x-11-------7-7-x-7----|
G|------11--11-x-11-------8-8-x-8----|   
D|------11--11-x-11-------8-8-x-8----|
A|---9-----------------6-------------|
E|-----------------------------------| 


e|------------------------11-11-x-11----|
B|------11--11-x-11-------12-12-x-12----|
G|------11--11-x-11-------13-13-x-13----|   
D|------11--11-x-11-------11-11-x-11----|
A|---9-----------------11---------------|
E|--------------------------------------| 


e|------------------------6-6---6----|
B|------11--11-x-11-------7-7-x-7----|
G|------11--11-x-11-------8-8-x-8----|   
D|------11--11-x-11-------8-8-x-8----|
A|---9-----------------6-------------|
E|-----------------------------------| 



e|-----------------------4-4-x-4----|
B|------11--11-x-11------4-4-x-4----|
G|------11--11-x-11------4-4-x-4----|   
D|------11--11-x-11------6-6-x-6----|
A|---9-------------------6-6-x-6----|
E|---------------------4------------| 


e|------------------------6-6---6----|
B|------11--11-x-11-------7-7-x-7----|
G|------11--11-x-11-------8-8-x-8----|   
D|------11--11-x-11-------8-8-x-8----|
A|---9-----------------6-------------|
E|-----------------------------------| 


e|----------------------------11--------|
B|------11--11-x-11---------12----------|
G|------11--11-x-11--------13-----------|   
D|------11--11-x-11-------11------------|
A|---9-----------------11---------------|
E|--------------------------------------| 
Tap to rate this tab
# A B C D E F G H I J K L M N O P Q R S T U V W X Y Z