Song name
# A B C D E F G H I J K L M N O P Q R S T U V W X Y Z

Paramore - Thats What You Get Acoustic tab

Tuning:
From Standard Tuning (E A D G B E) to Eb Tuning (Eb Ab Db Gb Bb Eb) then Drop E (6th string) to D

Intro:
Guitar 1
e|---------------------------------------|
B|---------------------------------------|
G|---------------------------------------| (2x)
D|--777-777--999--11-11-11--9------------|
A|--777-777--999--11-11-11--9------------|
E|--777-777--999--11-11-11--9------------|
Guitar 2
e|------------------------------------------------------------|
B|------------------------------------------------------------|
G|------------------------------------------------------------| (3x)
D|------------------------------------------------9-11--------|
A|---------------9-11-------------9-11--6-6-6---6-----11-11-9-|
E|---11-11-11--11-----11-11-11--11----------------------------|
Verse:
e|---------------------------------------|
B|---------------------------------------|
G|---------------------------------------| (2x)
D|--777-777--999--11-11-11---------------|
A|--777-777--999--11-11-11---------------|
E|--777-777--999--11-11-11---------------|
e|---------------------------------------|
B|---------------------------------------|
G|---------------------------------------| (2x)
D|--777-777--999--11-11-11--9------------|
A|--777-777--999--11-11-11--9------------|
E|--777-777--999--11-11-11--9------------|
e|---------------------------------------|
B|---------------------------------------|
G|---------------------------------------| (2x)
D|--777-777--999--11-11-11---------------|
A|--777-777--999--11-11-11---------------|
E|--777-777--999--11-11-11---------------|
e|---------------------------------------|
B|---------------------------------------|
G|---------------------------------------| (2x)
D|--777-777--999--11-11-11--9------------|
A|--777-777--999--11-11-11--9------------|
E|--777-777--999--11-11-11--9------------|
e|----0----------------|
B|----0----------------|
G|----9----------------|
D|----9----------------|
A|----7----------------|
E|---------------------|
Chorus:
e|-(0)-(0)-(0)-(0)-(0)-(0)--(0)----------|
B|-(0)-(0)-(0)-(0)-(0)-(0)--(0)----------|
G|--9---9---6---4---9---9---11-----------| (2x)
D|--7---9---6---4---7---9---11-----------|
A|--7---7---4---2---7---7---11-----------|
E|--7---------------7-------9------------|
e|--(0)--(0)-(0)----(0)-(0)--(0)------|
B|--(0)--(0)-(0)----(0)-(0)--(0)------|
G|---6----4---6------9---9---11-------|
D|---6----4---6------7---9---11-------|
A|---4----2---4------7---7---11-------|
E|-------------------7-------9--------|
Tap to rate this tab
# A B C D E F G H I J K L M N O P Q R S T U V W X Y Z