Song name
# A B C D E F G H I J K L M N O P Q R S T U V W X Y Z

Paramore - Never Let This Go tab

Never Let This Go (Acoustic Live)
All We Know Is Falling
Paramore


Watch the video for match the rhythm:  http://www.youtube.com/watch?v=BLO5hRqRH4k

One Guitar (Josh Farro)
Tuning Standard
Capo 6


-Intro-
----------9---------------7----------------7-------|
-------------12---------------13---------------13--|
----------------------12---------------12----------|
------9--------------------------------------------|   x4 
--9------------------------------------------------|
---------------------------------------------------|

...Maybe if my heart stops beating...
                                                                  
----------9---------------7----------------7-------|            ---(6)-------|
-------------12---------------13---------------13--|            ----7--------|
----------------------12---------------12----------|            ----x--------|
------9--------------------------------------------|  x2 then   ----9-- x6 --|   
--9------------------------------------------------|            ----9--------|
---------------------------------------------------|            ---(6)-------|


----------9---------------7----------------7-------|
-------------12---------------13---------------13--|
----------------------12---------------12----------|
------9--------------------------------------------| x2  
--9------------------------------------------------|
---------------------------------------------------|


...Because I never let this go...


-Chorus- (Watch the video for match the rhythm)
---x-------x------x-------x-----------------|
---x-------11-----6-------x-----------------|
---11------11-----6-------11----------------|
---11------9------10------11----------------|   
---9--------------9-------9-----------------|
---9--------------8-------9-----------------|

...One day you'll get sick of saying that everything's alright...


----------9---------------7----------------7-------|            ---(6)-------|
-------------12---------------13---------------13--|            ----7--------|
----------------------12---------------12----------|            ----x--------|
------9--------------------------------------------|  x2 then   ----9-- x6 --|  
--9------------------------------------------------|            ----9--------|
---------------------------------------------------|            ---(6)-------|

|_____________________________________________________________________________|
                                       x2


----------9---------------7----------------7-------|
-------------12---------------13---------------13--|
----------------------12---------------12----------|
------9--------------------------------------------| x2  
--9------------------------------------------------|
---------------------------------------------------|


...Because I never let this go...


-Chorus-
---x-------x------x-------x-----------------|
---x-------11-----6-------x-----------------|
---11------11-----6-------11----------------|
---11------9------10------11----------------|   
---9--------------9-------9-----------------|
---9--------------8-------9-----------------|

Then 

---x----------x-------x-----------------|
---x----------6-------x-----------------|
---10---------6-------11----------------|
---x----------10------11----------------|   x6
--(13)--------9-------9-----------------|
--(13)--------8-------9-----------------|


...But I'll never let this go...

__let it ring___

----x------|
----x------|
----11-----|
----11-----|   
----9------|
----9------|


...But I can't find the words to tell you...

-Chorus- (x2)
---x-------x------x-------x-----------------|
---x-------11-----6-------x-----------------|
---11------11-----6-------11----------------|
---11------9------10------11----------------|   
---9--------------9-------9-----------------|  
---9--------------8-------9-----------------|




Please rate and comment the tab! (if there are mistakes, don't forget to tell me) ;)
Tap to rate this tab
# A B C D E F G H I J K L M N O P Q R S T U V W X Y Z