Song name
# A B C D E F G H I J K L M N O P Q R S T U V W X Y Z

Paramore - Be Alone tab

Paramore - Be alone

by stummerman
stummer@live.co.uk

Drop D tuning

intro

e|------------------|
B|-----77--------7--|
G|--------77-6------|
D|--77---------7----|
A|------------------|
D|------------------| x4

verse

e|-------------------------------|-------------------------------------|
B|--10-10-10-10-10---12-10-------|--10-10-10-10-10---12-10-------------|
G|-------------------------11----|-------------------------11----------|
D|----------------------------12-|----------------------------12^14v12-|
A|-------------------------------|-------------------------------------|
D|-------------------------------|-------------------------------------|


e|------------------------------------------------------|
B|------------------------------------------------------|
G|--11-11-11-11-11-11-11-11--12-12-12-12-12-12-12-12-12-|
D|------------------------------------------------------|
A|------------------------------------------------------|
D|------------------------------------------------------|

e|------------------------------------------------------|
B|------------------------------------------------------|
G|--11-11-11-11-11-11-11-11--14-12-12-12-12-12-12-12-12-|
D|------------------------------------------------------|
A|------------------------------------------------------|
D|------------------------------------------------------|



e|-------------------------------|-------------------------------------|
B|--10-10-10-10-10---12-10-------|--10-10-10-10-10---12-10-------------|
G|-------------------------11----|-------------------------11----------|
D|----------------------------12-|----------------------------12^14v12-|
A|-------------------------------|-------------------------------------|
D|-------------------------------|-------------------------------------|

e|------------------------------------------------------|
B|------------------------------------------------------|
G|--11-11-11-11-11-11-11-11--12-12-12-12-12-12-12-12-12-|
D|------------------------------------------------------|
A|------------------------------------------------------|
D|------------------------------------------------------|

e|------------------------------------------------------|
B|------------------------------------------------------|
G|--11-11-11-11-11-11-11-11--14-12-12-12-12-12-12-12-12-|
D|------------------------------------------------------|
A|------------------------------------------------------|
D|------------------------------------------------------|


break - not 100% sure sounds like

              or        
e|------------|---------------|
B|----7---8---|------3--------|
G|----7---7---|--2---2--------|
D|----7---7---|--2---2--------|
A|------------|--2------------|
D|------------|---------------|


crs

e|---------------|----------------|----------------------|-14-15-14-12-14-10|
B|---------------|----------------|----------------------|------------------|
G|---------------|----------------|----------------------|------------------|
D|-0-0---5-5-5-5-|--9-9---7-7-7-7-|--0-0---5-5-5-5---5-7-|------------------|
A|-0-0---5-5-5-5-|--9-9---7-7-7-7-|--0-0---5-5-5-5---5-7-|------------------|
D|-0-0---5-5-5-5-|--9-9---7-7-7-7-|--0-0---5-5-5-5---5-7-|------------------|


e|---------------|----------------|----------------------|-14-15-14-12-14-10|
B|---------------|----------------|----------------------|------------------|
G|---------------|----------------|----------------------|------------------|
D|-0-0---5-5-5-5-|--9-9---7-7-7-7-|--0-0---5-5-5-5---5-7-|------------------|
A|-0-0---5-5-5-5-|--9-9---7-7-7-7-|--0-0---5-5-5-5---5-7-|------------------|
D|-0-0---5-5-5-5-|--9-9---7-7-7-7-|--0-0---5-5-5-5---5-7-|------------------|



then repeat with double rhythm as per song arrangement


It was a bit rushed when tabbing so feel free to send me corrections if any seems wrong.
Tap to rate this tab
# A B C D E F G H I J K L M N O P Q R S T U V W X Y Z