Song name
# A B C D E F G H I J K L M N O P Q R S T U V W X Y Z

Paramore - One Of Those Crazy Girls tab

transcribed by stummerman

stummer@live.co.uk

Key
d = down stroke (on beat)
u = up stroke (off beat)
s = slide
h = hammer on
p = pull off


I've re tabbed the solo as other tabs didn't sound 100% right to me. So here it is 
represented with up and down strokes (or on and off the beat). This way  its slightly easier 
to get the timing especially on the 3rd bar.


Guitar Solo :

e|---------------------------------------------|---------------------------|
B|---------------------------------------------|---------------------------|
G|-----------------------------11-10--9~~~-----|-------------10-8---8------|
D|----slide----s8-9--11--9--8------------------|---6-8-9-8-6----------11-8-|
A|---------------------------------------------|---------------------------|
E|---------------------------------------------|---------------------------|
                d u  d   u  d  u  d   d            d u d u d u  d   u  d d



e|------------------------------------|-------------------------------------|
B|------------------------11---11-12--|--12-11-9h11p9------9----------------|
G|----11------11--10-8----------------|---------------11-----11-10h11p10----|
D|----11--8---------------------------|----------------------------------11-|
A|------------------------------------|-------------------------------------|
E|------------------------------------|-------------------------------------|
      d   d   d   u  d    u    u  d       d  d d      d    d  d  d       d


I'm pretty sure this is correct. If anyone has any corrections feel free to notify me.
Tap to rate this tab
 
# A B C D E F G H I J K L M N O P Q R S T U V W X Y Z