Song name
# A B C D E F G H I J K L M N O P Q R S T U V W X Y Z

Paramore - Fast In My Car tab

Tab Original By Alexander 

Intro - Verso:
E|---------------------------|
B|---------------------------|
G|---------------------------|
D|-3------666-101010-3-3-----|
A|-3-X6---666-101010-3-3-X3--|
E|-1------444-8-8-8--1-1-----|

PRE-CHORUS
E|---------------------------------------------|
B|--9-8-----9-8------------9-8-----9-8---------|
G|-8-------8--------8----8--------8--------8---|
D|-----10------10-10-10-------10------10-10-10-|
A|---------------------------------------------|
E|---------------------------------------------|

CHORUS
RHYTHM
E|------------------------------------20------------------------------------|
B|-------------20-21-20---------------20-------------20-21-20---------------|
G|--202020-------------20---202020---------202020------------20---202020----|
D|18-------X2-------------18-------X2----18-------X2------------18-------X2-|
A|--------------------------------------------------------------------------|
E|--------------------------------------------------------------------------|

LEAD
E|------------------------------|
B|------------------------------|
G|------------------------------|
D|-66666-1010101010-1313131313--| X3
A|-66666-1010101010-1313131313--|
E|-44444-8-8-8-8-8--1111111111--|

E|-----------------|
B|-----------------|
G|-----------------|
D|-666-101010-3-3--|
A|-666-101010-3-3--|
E|-444-8-8-8--1-1--|

E|-------------------------------------------------1818181818-2020202020---|
B|-1818181818-2020202020-2121212121-1818181818-1818181818-------1818181818-|
G|-------------------------------------------------------------------------|
D|-------------------------------------------------------------------------|
A|-------------------------------------------------------------------------|
E|-------------------------------------------------------------------------|
                                     REPEAT

REPEAT
CHORUS

BRIDGE
E|-------------------|
B|-------------------|
G|-------------------|
D|-88888-66666-55555-| REPEAT
A|-88888-66666-55555-|
E|-66666-44444-33333-|





E|------------------------------------------------------------------------|
B|-1818181818181818181818181818181818181818181818181818181818181818181818-|
G|------------------------------------------------------------------------|
D|------------------------------------------------------------------------|
A|------------------------------------------------------------------------|
E|------------------------------------------------------------------------|



E|------------|
B|------------|
G|------------|
D|-666-101010-|
A|-666-101010-| X2
E|-444-8-8-8--|

REPEAT
CHORUS

FINAL
E|--------------------------------------------------1818181818-2020202020---|
B|-1818181818-2020202020-2121212121-1818181818-1818181818--------1818181818-|
G|--------------------------------------------------------------------------|
D|--------------------------------------------------------------------------|
A|--------------------------------------------------------------------------|
E|--------------------------------------------------------------------------|
                                       REPEAT

E|--------------|
B|--------------|
G|--------------|
D|-666-101010-\-|
A|-666-101010-\-|
E|-444-8-8-8--\-|
Tap to rate this tab
 
# A B C D E F G H I J K L M N O P Q R S T U V W X Y Z