Song name
# A B C D E F G H I J K L M N O P Q R S T U V W X Y Z

Paramore - Native Tongue tab

TAB ORIGINAL BY : alex_dqg

PARAMORE NATIVE TOUNGUE 
INTRO-VERSE 
e|-------------------------------|
B|-------------------------------|
G|-99999-------------99999-------|
D|-99999-99999-77777-99999-99999-|
A|-77777-99999-77777-77777-99999-|
E|-------77777-55555-------77777-|

e|--------7-----------7-----|
B|-555555---55-555555---55--|
G|--------------------------|

e|--------2-----------2-----|
B|-444444---44-444444---44--|
G|--------------------------|

e|--------7-----------7-----|
B|-555555---55-555555---55--|
G|--------------------------|

e|--------2-----------2-----|
B|-444444---44-444444---44--|
G|--------------------------|

PRE-CHORUS 
e|-------------|
B|-------------|
G|-------------|
D|-77777-99999-| palm mute
A|-77777-99999-|
E|-55555-77777-|

CHORUS
e|-------------------------|
B|-------------------------|
G|-------------------------|
D|-77777-99999-77777-99999-| 
A|-77777-99999-77777-99999-|
E|-55555-77777-55555-77777-|

e|----------------------------------------------|
B|-----------5-5-------------------5-5----------|
G|-66666-4-6--6--6-444---66666-4-6--6--6-444----|


VERSE 

e|-------------------------------|
B|-------------------------------|
G|-99999-------------99999-------|
D|-99999-99999-77777-99999-99999-|
A|-77777-99999-77777-77777-99999-|
E|-------77777-55555-------77777-|


e|--------7-----------7-----|
B|-555555---55-555555---55--|
G|--------------------------|

e|--------2-----------2-----|
B|-444444---44-444444---44--|
G|--------------------------|

e|--------7-----------7-----|
B|-555555---55-555555---55--|
G|--------------------------|

e|--------2-----------2-----|
B|-444444---44-444444---44--|
G|--------------------------|

e|-------------|
B|-------------|
G|-------------|
D|-77777-99999-| palm mute
A|-77777-99999-|
E|-55555-77777-|

e|-------------------|
B|-------------------|
G|-6-8-9-11-9-11-13--|
D|-6-8-9-11-9-11-13--| 
A|-4-6-7-9--7-9--11--|
E|-------------------|

CHORUS
e|-------------------------|
B|-------------------------|
G|-------------------------|
D|-77777-99999-77777-99999-| 
A|-77777-99999-77777-99999-|
E|-55555-77777-55555-77777-|

e|----------------------------------------------|
B|-----------5-5-------------------5-5----------|
G|-66666-4-6--6--6-444---66666-4-6--6--6-444----|


e|-------------------------|
B|-------------------------|
G|-------------------------|
D|-77777-99999-77777-99999-| 
A|-77777-99999-77777-99999-|
E|-55555-77777-55555-77777-|

SOLO
e|-------------------------|
B|-------------------------|
G|-99999-66666-------------|
D|-99999-66666-77777-99999-| 
A|-77777-44444-77777-99999-|
E|-------------55555-77777-|


e|------------------------------------------------------------|
B|------------------------------------------------------------|
G|-999-11-13-9999-11-13-11-9-6-8-9-8------9--11--16--13-------|
D|-9---------------------------------9----x--x----x---x-------|
A|----------------------------------------7--9---14--11-------|
E|------------------------------------------------------------|

e|-------------------------------------------------------------|
B|-------------------------------------------------------------|
G|-999-111111-131313-8-8-7-6-5-4-3-2~--------------------------|
D|-------------------------------------------------------------|
A|-------------------------------------------------------------|
E|-------------------------------------------------------------|

e|-------------|
B|-9---9-9-7-9-| X4
G|-9-9-9-9-8-9-|
D|---9---------|

e|-------------|
B|-------------|
G|-11-13-14-16-|
D|-11-13-14-16-| 
A|-9--11-12-14-|
E|-------------|


CHORUS
e|-------------------------|
B|-------------------------|
G|-------------------------|
D|-77777-99999-77777-99999-| 
A|-77777-99999-77777-99999-|
E|-55555-77777-55555-77777-|

e|----------------------------------------------|
B|-----------5-5-------------------5-5----------|
G|-66666-4-6--6--6-444---66666-4-6--6--6-444----|

e|-------------------------|
B|-------------------------|
G|-------------------------|
D|-77777-99999-77777-99999-| 
A|-77777-99999-77777-99999-|
E|-55555-77777-55555-77777-|

FINAL

e|-------|
B|-------|
G|-6-16\-|
D|-X--X\-| 
A|-4-14\-|
E|-------|
Tap to rate this tab
 
# A B C D E F G H I J K L M N O P Q R S T U V W X Y Z