Song name
# A B C D E F G H I J K L M N O P Q R S T U V W X Y Z

Paramore - Now tab

Paramore - Now

Tuning: standard

INTRO & VERSE  "Don't try to take this from me..."
e|-------------------------------------------------------------------------|
B|-------------------------------------------------------------------------|
G|-------------------------------------------------------------------------|
D|-------------------------------------------------------------------------|
A|-------------------------------------------------------------------------|
E|-3/12-12-12-12\3-3-3-3/12-12-12-12\3-3-3-5/8-8-8-8\5-5-5-5/10-10-8-8-5-5-|(x4)


BRIDGE Bend up the last note (listen to the song for it) "Lost the battle..."

e|-------------------------------------------------------------------------|
B|--0(x16)-1(x14)-3-1/5(x16)---5^(x8)--------------------------------------|
G|-------------------------------------------------------------------------|
D|-------------------------------------------------------------------------|
A|-------------------------------------------------------------------------|
E|-------------------------------------------------------------------------|

e|-------------------------------------------------------------------------|
B|--12(x16)-13(x14)-15-13/17(x16)---17^--(x8)------------------------------|
G|-------------------------------------------------------------------------|
D|-------------------------------------------------------------------------|
A|-------------------------------------------------------------------------|
E|-------------------------------------------------------------------------|



CHORUS  "If there's a future we want it..."
e|-------------------------------------------------------------------------|
B|-------------------------------------------------------------------------|
G|--5(x16)-------------5(x16)----------------------------------------------|(x2)
D|--5(x16)----7(x16)---5(x16)--7(x8)-----3(x8)-----------------------------|
A|--3(x16)----7(x16)---3(x16)--7(x8)-----3(x8)-----------------------------|
E|------------5(x16)-----------5(x8)-----1(x8)-----------------------------|


INTRO & VERSE  "Don't try to take this from me..."

e|-------------------------------------------------------------------------|
B|-------------------------------------------------------------------------|
G|-------------------------------------------------------------------------|
D|-------------------------------------------------------------------------|
A|-------------------------------------------------------------------------|
E|-3/12-12-12-12\3-3-3-3/12-12-12-12\3-------------------------------------|

e|-------------------------------------------------------------------------|
B|-------------------------------------------------------------------------|
G|-------------------------------------------------------------------------|
D|-------------------------------------------------------------------------|
A|-------------------------------------------------------------------------|
E|-3/12-12-12-12\3-3-3-3/12-12-12-12\3-3-3-5/8-8-8-8\5-5-5-5/10-10-8-8-5-5-|(x3)



BRIDGE Bend up the last note (listen to the song for it) "Lost the battle..."

e|-------------------------------------------------------------------------|
B|--0(x16)-1(x14)-3-1/5(x16)---5^(x8)--------------------------------------|
G|-------------------------------------------------------------------------|
D|-------------------------------------------------------------------------|
A|-------------------------------------------------------------------------|
E|-------------------------------------------------------------------------|

e|-------------------------------------------------------------------------|
B|--12(x16)-13(x14)-15-13/17(x16)---17^(x8)--------------------------------|
G|-------------------------------------------------------------------------|
D|-------------------------------------------------------------------------|
A|-------------------------------------------------------------------------|
E|-------------------------------------------------------------------------|



CHORUS  "If there's a future we want it..."

e|-------------------------------------------------------------------------|
B|-------------------------------------------------------------------------|
G|--5(x16)-------------5(x16)----------------------------------------------|(x4)
D|--5(x16)----7(x16)---5(x16)--7(x8)-----3(x8)-----------------------------|
A|--3(x16)----7(x16)---3(x16)--7(x8)-----3(x8)-----------------------------|
E|------------5(x16)-----------5(x8)-----1(x8)-----------------------------|



BRIDGE2  "There's a time and a place to die..."

e|----------10---12-------------10--12-12^13V12------------------------|
B|---10--13-------------10--13-----------------------------------------|
G|---------------------------------------------------------------------|
D|---------------------------------------------------------------------|
A|---------------------------------------------------------------------|
E|---------------------------------------------------------------------|

e|-----------10-------------10--12^13v12-------------------------------|
B|--10--13-------13-12--13---------------------------------------------|
G|---------------------------------------------------------------------|
D|---------------------------------------------------------------------|
A|---------------------------------------------------------------------|
E|---------------------------------------------------------------------|

e|-----------10--12--------------10--12-12^13V12-----------------------|
B|---10--13--------------10--13----------------------------------------|
G|---------------------------------------------------------------------|
D|---------------------------------------------------------------------|
A|---------------------------------------------------------------------|
E|---------------------------------------------------------------------|

e|-----------10--------------------------------------------------------|
B|---10--13-------13--12--13-------------------------------------------|
G|---------------------------------------------------------------------|
D|---------------------------------------------------------------------|
A|---------------------------------------------------------------------|
E|---------------------------------------------------------------------|

Bend up last note a little bit before last chorus

e|-------------------------------------------------------------------------|
B|--0(x16)-1(x14)-3-1/5(x16)---5^(x8)--------------------------------------|
G|-------------------------------------------------------------------------|
D|-------------------------------------------------------------------------|
A|-------------------------------------------------------------------------|
E|-------------------------------------------------------------------------|

e|-------------------------------------------------------------------------|
B|--12(x16)-13(x14)-15-13/17(x16)--17^(x8)---------------------------------|
G|-------------------------------------------------------------------------|
D|-------------------------------------------------------------------------|
A|-------------------------------------------------------------------------|
E|-------------------------------------------------------------------------|


LAST CHORUS  "If there's a future we want it..."

e|-------------------------------------------------------------------------|
B|-------------------------------------------------------------------------|
G|--5(x16)-------------5(x16)----------------------------------------------|(x3)
D|--5(x16)----7(x16)---5(x16)--7(x8)-----3(x8)-----------------------------|
A|--3(x16)----7(x16)---3(x16)--7(x8)-----3(x8)-----------------------------|
E|------------5(x16)-----------5(x8)-----1(x8)-----------------------------|

e|-------------------------------------------------------------------------|
B|-------------------------------------------------------------------------|
G|--5(x16)-----------5(x16)------------------------------------------------|
D|--5(x16)--7(x16)---5(x16)--7(x8)--3(x8)---7(x8)--3(x8)---7(x4)--10(x4)---|
A|--3(x16)--7(x16)---3(x16)--7(x8)--3(x8)---7(x8)--3(x8)---7(x4)--8(x4)----|
E|----------5(x16)-----------5(x8)--1(x8)---5(x8)--1(x8)---5(x4)--8(x4)----|
Tap to rate this tab
# A B C D E F G H I J K L M N O P Q R S T U V W X Y Z