Song name
# A B C D E F G H I J K L M N O P Q R S T U V W X Y Z

Paramore - Future tab

Paramore - Future

tabbed by hayleysfirehead


Intro
                            

E|-------------------|----------------------|------------------|-------------------|
B|-------------------|----------------------|------------------|-------------------|
G|-------------------|----------------------|------------------|-------------------|
D|-------------------|----------------------|------------------|-------------------|
A|----8---8---8---8--|-----8----8----8----8-|----8---8---8---8-|----8---8---8---8--|
E|--8---8---8---8----|--10---10---10---10---|--6---6---6---6---|--6---6---6---6----|
                                                                                      x1
E|-------------------|-----------------|-------------------|-----------------------|
B|-------------------|-----------------|-------------------|-----------------------|
G|-------------------|-----------------|-------------------|-----------------------|
D|-------------------|-----------------|-------------------|-----------------------|
A|----8---8---8---8--|---8---8---8---8-|---8----8---8---8--|-----8----8----8----8--|
E|--5---5---5---5----|-6---6---6---6---|-10--10--10--10----|--12---12---12---12----|

verse

E|-------------------|----------------------|------------------|-------------------|
B|-------------------|----------------------|------------------|-------------------|
G|-------------------|----------------------|------------------|-------------------|
D|-------------------|----------------------|------------------|-------------------|
A|----8---8---8---8--|-----8----8----8----8-|----8---8---8---8-|----8---8---8---8--|
E|--8---8---8---8----|--10---10---10---10---|--6---6---6---6---|--6---6---6---6----|
                                                                                   whole thing x2
E|-------------------|-----------------|-------------------|-----------------------|
B|-------------------|-----------------|-------------------|-----------------------|
G|-------------------|-----------------|-------------------|-----------------------|
D|-------------------|-----------------|-------------------|-----------------------|
A|----8---8---8---8--|---8---8---8---8-|---8----8---8---8--|-----8----8----8----8--|
E|--5---5---5---5----|-6---6---6---6---|-10--10--10--10----|--10---10---10---10----|


Chords in second and fourth part of verse
E|--------------------------|--------------------------|
B|--------------------------|--------------------------|
G|--3--3--3--3--3--3--3--3--|--3--3--3--3--3--3--3--3--|
D|--3--3--3--3--3--3--3--3--|--3--3--3--3--3--3--3--3--|
A|--1--1--1--1--1--1--1--1--|--0--0--0--0--0--0--0--0--|
E|--------------------------|--------------------------|

E|--------------------------|--------------------------|
B|--------------------------|--------------------------|
G|--3--3--3--3--3--3--3--3--|--3--3--3--3--3--3--3--3--|
D|--3--3--3--3--3--3--3--3--|--3--3--3--3--3--3--3--3--|
A|--x--x--x--x--x--x--x--x--|--x--x--x--x--x--x--x--x--|
E|--3--3--3--3--3--3--3--3--|--3--3--3--3--3--3--3--3--|


Instrumental
                                                              feel the note bend up slowly
E|--12--12--12--12--|--13--13--13--13--|--15--15--15--15--|-15^-15^-15^-15^--|
B|------------------|------------------|------------------|------------------|
G|------------------|------------------|------------------|------------------|
D|------------------|------------------|------------------|------------------|
A|------------------|------------------|------------------|------------------|
E|------------------|------------------|------------------|------------------|

                                                              feel the note bend up slowly
E|--12--12--12--12--|--13--13--13--13--|--10--10--10--10--|--10^--10^--10^--10^--|
B|------------------|------------------|------------------|----------------------|
G|------------------|------------------|------------------|----------------------|
D|------------------|------------------|------------------|----------------------|
A|------------------|------------------|------------------|----------------------|
E|------------------|------------------|------------------|----------------------|


E|--12--13--12--13--12--13--15----15----15------15------15-----|
B|-----------------------------13----13-----13------13------13-|
G|-------------------------------------------------------------| x2
D|-------------------------------------------------------------|
A|-------------------------------------------------------------|
E|-------------------------------------------------------------|
                                                                      whole thing x2
                    triplet
                    ==========
E|--12--13--12--13--12--13--17----17----17------17------17-----|
B|-----------------------------15----15-----15------15------15-|
G|-------------------------------------------------------------| x2
D|-------------------------------------------------------------|
A|-------------------------------------------------------------|
E|-------------------------------------------------------------|

chords

E|--------------------------|
B|--------------------------|
G|-3-----5------------------|x2
D|-3-x27-5-x3-5-------------|
A|-1-----3----5-x30---------|
E|------------3-------------|

solo bit
                                                           feel the note bend up slowly
E|--12--12--12--12--|--13--13--13--13--|--10--10--10--10--|--10^--10^--10^--10^--|
B|------------------|------------------|------------------|----------------------|
G|------------------|------------------|------------------|----------------------|
D|------------------|------------------|------------------|----------------------|
A|------------------|------------------|------------------|----------------------|
E|------------------|------------------|------------------|----------------------|



E|12--12--12--12--|--13--13--13--13--|--17----17----17------17------17-----17------17------17----|
B|----------------|------------------|-----15----15-----15------15------15----15-----15-------15-|
G|----------------|------------------|-----------------------------------------------------------|
D|----------------|------------------|-----------------------------------------------------------|
A|----------------|------------------|-----------------------------------------------------------|
E|----------------|------------------|-----------------------------------------------------------|
x2

till fade out


from fade in 
5.45

E|--------------------------|
B|--------------------------|
G|-3-----5------------------|x1
D|-3-x14-5-x2-5-------------|
A|-1-----3----5-x16---------|
E|------------3-------------|

6.17

E|--17--13----------|--17--15--13--12--|--17--18--17--15--|-17--13--12--10---|
B|----------17--13--|------------------|------------------|------------------|
G|------------------|------------------|------------------|------------------|
D|------------------|------------------|------------------|------------------|
A|------------------|------------------|------------------|------------------|
E|------------------|------------------|------------------|------------------|

6.26

E|--17---15---13---12--|------------18---17--|-------17--------17--|-----17----17----17----17-|
B|---------------------|--15---13------------|--15--------15-------|--15----15----15----15----|
G|---------------------|---------------------|---------------------|--------------------------|
D|---------------------|---------------------|---------------------|--------------------------|
A|---------------------|---------------------|---------------------|--------------------------|
E|---------------------|---------------------|---------------------|--------------------------|

3.36

E|--17---15---13---12--|---------------------|--17---15---13---12--|------------18---17-|
B|---------------------|--13---17---13---17--|---------------------|--13---17-----------|
G|---------------------|---------------------|---------------------|--------------------|
D|---------------------|---------------------|---------------------|--------------------|
A|---------------------|---------------------|---------------------|--------------------|
E|---------------------|---------------------|---------------------|--------------------|


3.45

E|--17h18-17h18-17~~---|---------------------|--17h18-17h18-17~~---|--------------------|
B|---------------------|---------------------|---------------------|--------------------|
G|---------------------|---------------------|---------------------|--------------------|
D|---------------------|---------------------|---------------------|--------------------|
A|---------------------|---------------------|---------------------|--------------------|
E|---------------------|---------------------|---------------------|--------------------|

6.55

E|--12---13---18---17--|---------------------|--12---13---17---15--|--------------------|
B|---------------------|--13-----------------|---------------------|--14----------------|
G|---------------------|---------------------|---------------------|--------------------|
D|---------------------|---------------------|---------------------|--------------------|
A|---------------------|---------------------|---------------------|--------------------|
E|---------------------|---------------------|---------------------|--------------------|


7.13

E|--12---13---17---15--|---17s18~~~~~--------|--12---10------------|--------------------|
B|---------------------|---------------------|------------13~~~~~--|--------------------|
G|---------------------|---------------------|---------------------|--------------------|
D|---------------------|---------------------|---------------------|--------------------|
A|---------------------|---------------------|---------------------|--------------------|
E|---------------------|---------------------|---------------------|--------------------|



                    triplet
                    ==========
E|--12--13--12--13--12--13--17----17----17------17------17-----|
B|-----------------------------15----15-----15------15------15-|
G|-------------------------------------------------------------|
D|-------------------------------------------------------------|
A|-------------------------------------------------------------|
E|-------------------------------------------------------------|



E|--12--13--12--13--12--13--15----15----15------15------15-----|
B|-----------------------------13----13-----13------13------13-|
G|-------------------------------------------------------------|
D|-------------------------------------------------------------|
A|-------------------------------------------------------------|
E|-------------------------------------------------------------|



                    triplet
                    ==========
E|--12--13--12--13--12--13--17----17----17------17------17-----|
B|-----------------------------15----15-----15------15------15-|
G|-------------------------------------------------------------|
D|-------------------------------------------------------------|
A|-------------------------------------------------------------|
E|-------------------------------------------------------------|


Fade out half way through ^
Tap to rate this tab
# A B C D E F G H I J K L M N O P Q R S T U V W X Y Z