Song name
# A B C D E F G H I J K L M N O P Q R S T U V W X Y Z

Paramore - One Of Those Crazy Girls tab

Guitar Solo : (distortion)

e|------------------------------------------------------------------------|
B|------------------------------------------------------------------------|
G|-----------------------------11-10--8h10p8~---------------10-8---8------|
D|----slide----s8-9--11--9--8---------------------6-8-9-8-6----------11-9-|
A|------------------------------------------------------------------------|
E|------------------------------------------------------------------------|
              

Continued:

e|----------------------------------------------------------------------|
B|-----------------------11---12-12--11-9h11p9----9-9-------------------|
G|--11--------8-11-10-8------------------------11-----11-10h11p10-------|
D|-----11-11------------------------------------------------------11----|
A|----------------------------------------------------------------------|
E|----------------------------------------------------------------------|
Tap to rate this tab
 
# A B C D E F G H I J K L M N O P Q R S T U V W X Y Z