Song name
# A B C D E F G H I J K L M N O P Q R S T U V W X Y Z

Paramore - Aint It Fun tab

Since no one seems to have the tab right i sounded it out and i'm 99% sure this is correct.
This is my first tab so sorry if i made any mistakes. Please correct me if i did.

(the tabs kept stuffing up so sorry if its really messy it isn't me)

you may need to listen to the song to get the rhythm and find when there are pauses
but it shouldn't be to hard to figure out

intro:
E|-------------|     |-----------------|
B|-------------|     |-----------------|
G|-------------|     |-----------------|
D|--------9h11-| X4  |--------9h11-11--|
A|--11-7-------|     |--11-7-----------|
D|-------------|     |-----------------|

verse:                                                            (listen for pauses)

----------------------------|--------------------------------------|--------------------|-------------|
----------------------------|--------------------------------------|--------------------|-------------|
------------------------(x3)|---------------------------9----------|--------------------|-------------|
--------9h11--------9h7-----|--------9h11---------9h11----11-9h11|--------9h11-(x13)--|--------9h11-11|
--11-7---------11-7---------|--11-7---------11-7------------------|--11-7-------------|--11-7---------|
----------------------------|--------------------------------------|--------------------|-------------|

chorus:

----------------|-------------|------------|
----------------|-------------|------------|
----------------|-------------|------------|
--7-7-7-7-7-7-7|--11-11-11-11|--2-2-2-2----| X4
--7-7-7-7-7-7-7|--11-11-11-11|--2-2-2-2----|
--7-7-7-7-7-7-7|--11-11-11-11|--2-2-2-2----|

lead over chorus: (this happens when you play 7 the second time round in the chorus)

---------------------------------|
---------------------------------|
--15-15-12--15-15-10--10h12-8----|
---------------------------------|
---------------------------------|
---------------------------------|


verse:
----------------------------|--------------------------------------|--------------------|
----------------------------|--------------------------------------|--------------------|
------------------------ (x3)|---------------------------9----------|-------------------|
--------9h11--------9h7-----|--------9h11---------9h11----11-9h11|--------9h11--(x5-----|
--11-7---------11-7---------|--11-7---------11-7------------------|--11-7---------------|
----------------------------|--------------------------------------|--------------------|

---------------------9|--------------|-----------------|
--------------9-------|--------------|-----------------|
----------------11-9--|-----------(x6)|----------------|
--------9h11----------|--------9h11-|-------9h11-11----|
--11-7----------------|--11-7-------|--11-7------------|
-----------------------|-------------|-----------------|

chorus:

----------------|-------------|------------|
----------------|-------------|------------|
----------------|-------------|------------|
--7-7-7-7-7-7-7|--11-11-11-11|--2-2-2-2----| X8
--7-7-7-7-7-7-7|--11-11-11-11|--2-2-2-2----|
--7-7-7-7-7-7-7|--11-11-11-11|--2-2-2-2----|

lead over chorus: (this happens when you play 7 the second time round in the chorus)

---------------------------------|
---------------------------------|
--15-15-12--15-15-10--10h12-8----|
---------------------------------|
---------------------------------|
---------------------------------|

bridge: (palmuted)

------------------|        | -----------------------------------|-------------------------------|
------------------|        |-----------------------------------|--------------------------------|
------------------|        |--3-3-3-3-3-3-3-3-3-3-3-3-3-3-3-3-|---------------------------------|
--2-2-2-2-2-2-2-2| repeat  |--3-3-3-3-3-3-3-3-3-3-3-3-3-3-3-3-|--2-2-2-2-2-2-2-2-2-2-2-2-2-2-2-2|
--2-2-2-2-2-2-2-2| 6 times |--1-1-1-1-1-1-1-1-1-1-1-1-1-1-1-1-|--2-2-2-2-2-2-2-2-2-2-2-2-2-2-2-2|
--2-2-2-2-2-2-2-2|         |----------------------------------|--2-2-2-2-2-2-2-2-2-2-2-2-2-2-2-2|

----------------------------------|---------------------------------|
----------------------------------|---------------------------------|
--3-3-3-3-3-3-3-3-3-3-3-3-3-3-3-3-|---------------------------------|
--3-3-3-3-3-3-3-3-3-3-3-3-3-3-3-3-|--2-2-2-2-2-2-2-2-2-2-2-2-2-2-2-2|
--1-1-1-1-1-1-1-1-1-1-1-1-1-1-1-1-|--2-2-2-2-2-2-2-2-2-2-2-2-2-2-2-2|
----------------------------------|--2-2-2-2-2-2-2-2-2-2-2-2-2-2-2-2|

chorus:

----------------|-------------|------------|
----------------|-------------|------------|
----------------|-------------|------------|
--7-7-7-7-7-7-7|--11-11-11-11|--2-2-2-2----| X8
--7-7-7-7-7-7-7|--11-11-11-11|--2-2-2-2----|
--7-7-7-7-7-7-7|--11-11-11-11|--2-2-2-2----|

lead over chorus: (this happens when you play 7 the second time round in the chorus)

---------------------------------|
---------------------------------|
--15-15-12--15-15-10--10h12-8----|
---------------------------------|
---------------------------------|
---------------------------------|

solo bit at the end:

-------9h12p9----9-|------9h12p9-------|-------9h12p9----9---14-14-12-9--|
--9h12--------12--|--9h12--------12-9-9|--9h12--------12-----------------|
-------------------|--------------------|--------------------------------|
-------------------|--------------------|--------------------------------| (repeat 4 times)
-------------------|--------------------|--------------------------------|
-------------------|--------------------|--------------------------------|

------------------|-------------------|
--9-9---9-10-9--9|--9-9---9-10-9------|
------9--------9-|------9---------9---|
-----------------|--------------------|
-----------------|--------------------|
-----------------|--------------------|

------------------------|--------------------------|
------------------------|--------------------------|
------------------------|--------------------------|
--------9h11-------9h11|--------9h11-------9h11----|
--11-7-------11-7------|--11-7-------11-7----------|
-----------------------|---------------------------|


------------------|-------------------|
--9-9---9-10-9--9|--9-9---9-10-9------|
------9--------9-|------9---------9---|
-----------------|--------------------|
-----------------|--------------------|
-----------------|--------------------|

------------------------|--------------------------|
------------------------|--------------------------|
------------------------|--------------------------|
--------9h11-------9h11|--------9h11-------9h11----|
--11-7-------11-7------|--11-7-------11-7----------|
-----------------------|---------------------------|

(listen closely for when this is played under the solo but this isn't really needed)

--7-7-7-7-|--7-7-7-7----|
----------|-------------|
--4-4-4-4-|--4-4-4-4----|
----------|-------------|
----------|-------------|
----------|-------------|
Tap to rate this tab
# A B C D E F G H I J K L M N O P Q R S T U V W X Y Z