Song name
# A B C D E F G H I J K L M N O P Q R S T U V W X Y Z

Paramore - Grow Up tab

Band: Paramoore
Song: Grow Up 
Tab: Alex_dqg

Intro / Verse 

Rhythm
e|---------------------------------------------|
B|---------------------------------------------|
G|---------------------------------------------|
D|--4----4----4------------4-----4----4--------|
A|-5-5--5-5--5-5--5---------5-----5-7--5-7-----|
E|----5----5----5--5-7-5-3---5-3---5----5------|

Lead
e|-------------------------|
B|-------------------------|
G|-7-7-7-7-----9-9---------|
D|-7-7-7-7-5-5-9-9---------|x2
A|-5-5-5-5-5-5-7-7---------|
E|---------3-3-------------|

Chorus 

e|-------------------------------|
B|-------------------------------|
G|-7-7-4-44-7/9-----9-99-11/14---|
D|-7-7-4-44-7/9-5-5-9-99-11/14---|
A|-5-5-2-22-5/7-5-5-7-77-9 /12---|
E|--------------3-3--------------|

e|----------------------|
B|----------------------|
G|-7-7-4-44-7/9-----77--|
D|-7-7-4-44-7/9-5-5-77--|
A|-5-5-2-22-5/7-5-5-55--|
E|--------------3-3-----|

Repeat Intro/Verse

Repeat Chorus

Bridge
e|--------------------------------| 
B|--------------------------------|
G|-7/9~-9/11~7---7/9--------------|
D|------------------7h97h9-2h4----| 
A|--------------------------------|x2
E|--------------------------------|

e|-----------------------|
B|-----------------------|
G|-777777-444444---------|
D|-777777-444444-444444--|x2
A|-555555-222222-444444--|
E|---------------222222--|

e|---------------------| 
B|------7-10-7---------|
G|---------------------|
D|-7-9----------9-7-9--|Full.............
A|---------------------| 
E|---------------------|

e|-----------------------|
B|-----------------------|
G|-777777-444444---------|
D|-777777-444444-444444--|x2
A|-555555-222222-444444--|
E|---------------222222--|

e|----|
B|----|
G|----|
D|-5~-|
A|-5~-|
E|-3~-|

Chorus 
e|-------------------------------|
B|-------------------------------|
G|-7-7-4-44-7/9-----9-99-11/14---|
D|-7-7-4-44-7/9-5-5-9-99-11/14---|
A|-5-5-2-22-5/7-5-5-7-77-9 /12---|
E|--------------3-3--------------|

e|----------------------|
B|----------------------|
G|-7-7-4-44-7/9-----77--|
D|-7-7-4-44-7/9-5-5-77--|
A|-5-5-2-22-5/7-5-5-55--|
E|--------------3-3-----|

Repeat Chorus
 
Final 
e|---------------------| 
B|------7-10-7---------|
G|---------------------|
D|-7-9----------9-7-9--|Full..........
A|---------------------| 
E|---------------------|

G|---------------|
D|-12~-14~-9~-7~-|  
A|---------------| 
E|---------------|

G|------------------|
D|-12~-14~-9~-7~-12~|  
A|------------------| 
E|------------------|
Tap to rate this tab
# A B C D E F G H I J K L M N O P Q R S T U V W X Y Z