Song name
# A B C D E F G H I J K L M N O P Q R S T U V W X Y Z

Paramore - Daydreaming tab

BAND: PARAMORE 
SONG: DAYDREAMING
TAB: alex_dqg

ENJOY

INTRO
e|----------------------|
B|----------------------|
G|-7~-77777-------------|
D|-7~-77777-5~-55555----|x2
A|-5~-55555-5~-55555----|
E|----------3~-33333----|

e|-----------------------|
B|---5-7--5-7--5-7-FULL--|
G|--7----7----7----------|
D|-----------------------|
A|-5---------------------|
E|-----------------------|

VERSE 

e|--------------------|
B|---5-7---5----------|
G|--7-----6-6--7~-----|
D|-------------7~-----|X2
A|-5----4------5~-----|
E|--------------------|

e|------------------------------------------|
B|------------------------------------------|
G|-7777777-6666666-4444444-PALM MUTE---7~---|
D|-------------------------------------7~---|X2
A|-------------------------------------5~---|
E|------------------------------------------|

PRE CHORUS
e|--------------------|
B|-10--10-------------|
G|---11----------7~---|
D|--------7-9-7--7~---|X2
A|---------------5~---|
E|--------------------|

e|----------------------------------------|
B|----------------------------------------|
G|-7777777-6666666-4444444-PALM MUTE------|
D|----------------------------------------|X2
A|------------------------------------~---|
E|----------------------------------------|

CHORUS 
e|----------------------|
B|----------------------|
G|-7~-77777-------------|
D|-7~-77777-5~-55555----|x2
A|-5~-55555-5~-55555----|
E|----------3~-33333----|

e|------------------------------------------------------------------|
B|------------------------------------------------------------------|
G|-777777777777--------------777777777777---------------------------|
D|-777777777777-555555555555-777777777777-777777777777-555555555555-|
A|-555555777777-555555555555-555555555555-777777777777-555555555555-|
E|--------------333333333333--------------555555555555-333333333333-|

e|-----------------------|
B|---5-7--5-7--5-7-FULL--|
G|--7----7----7----------|
D|-----------------------|
A|-5---------------------|
E|-----------------------|

VERSE
e|--------------------|
B|---5-7---5----------|
G|--7-----6-6--7~-----|
D|-------------7~-----|X2
A|-5----4------5~-----|
E|--------------------|

e|----------------------|
B|----------------------|
G|---7----7----7--------|
D|--7-7--7-7--7-7-FULL--|
A|-5----5----5----------|
E|----------------------|

REPEAT CHORUS

BRIDGE 

ACOUSTIC

e|-----------------|
B|-----------------|
G|-4-------4-------|
D|-4-4-5-5-4-4-5---|
A|-2-4-5-5-2-4-5---|
E|---2-3-3---2-3---|

MIN: 2:53-3:15 X2
e|---------------------------------------------|
B|---------------------------------------------|
G|-------777777-666666-999999-111111111111-----|
D|-999999--------------------------------------|PALM MUTE
A|---------------------------------------------|
E|---------------------------------------------|

e|---------------------------------------------|
B|---------------------------------------------|
G|-------777777-666666-------------------------|
D|-999999-------------777777-555555------------|PALM MUTE
A|---------------------------------------------|
E|---------------------------------------------|

CHORUS 
e|----------------------|
B|----------------------|
G|-7~-77777-------------|
D|-7~-77777-5~-55555----|x2
A|-5~-55555-5~-55555----|
E|----------3~-33333----|

e|------------------------------------------------------------------|
B|------------------------------------------------------------------|
G|-777777777777--------------777777777777---------------------------|
D|-777777777777-555555555555-777777777777-777777777777-555555555555-|X2
A|-555555777777-555555555555-555555555555-777777777777-555555555555-|
E|--------------333333333333--------------555555555555-333333333333-|


FINAL
e|----------------------|
B|----------------------|
G|-7~-77777-------------|
D|-7~-77777-5~-55555----|x2
A|-5~-55555-5~-55555----|
E|----------3~-33333----|


D|-5~---|
A|-5~---|
E|-3~---|
Tap to rate this tab
# A B C D E F G H I J K L M N O P Q R S T U V W X Y Z