Song name
# A B C D E F G H I J K L M N O P Q R S T U V W X Y Z

Paramore - Misery Business Acoustic tab

this is the first tab i've ever made :)
Rhythm part of Misery Business

* - palm mute

Tuning: Dropped D and then 1/2 step down

Intro :

D#|----------------------------------------------------------|
A#|----------------------------------------------------------|
F#|----------------------------------------------------------|
C#|---4-4--4---------2-2--2-2-2-2-4-4--4---------0-0-0-0-0-0-|
G#|---4-4--4-2-4-2-4-2-2--2-2-2-2-4-4--4-2-4-2-4-0-0-0-0-0-0-|
C#|---4-4--4---------2-2--2-2-2-2-4-4--4---------0-0-0-0-0-0-|
 
D#|--------------------------------------------------------------|
A#|--------------------------------------------------------------|
F#|--------------------------------------------------------------|
C#|---4-4--4---------2-2--2-2-2-2-4-4--4---------9-9-9-9-9-9-9---|
G#|---4-4--4-2-4-2-4-2-2--2-2-2-2-4-4--4-2-4-2-4-7-7-7-7-7-7-7---|
C#|---4-4--4---------2-2--2-2-2-2-4-4--4---------7-7-7-7-6-6-6---|

Verse:

(2x)
D#|----------------------------------------------------------|
A#|----------------------------------------------------------|
F#|----------------------------------------------------------|
C#|----------------------------------------------------------|
G#|----------2-4-2-4---------------------2-4-2-4-------------|
C#|---4-4--4---------2-2--2-2-2-2-4-4--4---------0-0-0-0-0-0-|
        *       *       *       *       *       *        

D#|------------------------------------------------------------|
A#|------------------------------------------------------------|
F#|------------------------------------------------------------|
C#|------------------------------------------------------------|
G#|----------2-4-2-4---------------------2-4-2-4---------------|
C#|---4-4--4---------2-2--2-2-2-2-4-4--4---------7-7-7-7-6-6-6-|
        *       *       *       *       *       *       

break

D#|-------------------------------|
A#|-------------------------------|
F#|-------------------------------|
C#|---4-4-4-4-4-4-4-2-2-2-2-2-----|
G#|---4-4-4-4-4-4-4-2-2-2-2-2-----|
C#|---4-4-4-4-4-4-4-2-2-2-2-2-----|

Chorus


D#|----------------------------------------------------------|
A#|---7-7-7-7-7-7--------------------------------------------|
F#|----------------6-6-6-6-6-6-------------------------------|
C#|---4-4-4-4-4-4--7-7-7-7-7-7--4-4-4-4-4-4-7-7-7-7-6-6-6----|    X2
G#|---0-0-0-0-0-0--7-7-7-7-7-7--4-4-4-4-4-4-4-4-4-4-4-4-4----|
C#|----------------7-7-7-7-7-7--2-2-2-2-2-4-4-4-4-4-4-4-4----|

D#|--------------------------------------------|
A#|--------------------------------------------|
F#|-----(2)-(2)-(2)-(2)-(2)-(2)-(2)-(2)-(2)----|
C#|------0---0---0---0---0---0---0---4---4--2--|
G#|------0---0---0---0---0---0---0---4---4--2--|
C#|------0---0---0---0---0---0---0---4---4--2--|

D#|--------------------------|
A#|--------------------------|
F#|----------------------(2)-|
C#|----2-2-2-2-2-2-2-4-4--0--|
G#|----2-2-2-2-2-2-2-4-4--0--|
C#|----2-2-2-2-2-2-2-4-4--0--|

D#|--------------------------------------------|
A#|--------------------------------------------|
F#|-----(2)-(2)-(2)-(2)-(2)-(2)-(2)-(2)-(2)----|
C#|------0---0---0---0---0---0---0---4---4--2--|
G#|------0---0---0---0---0---0---0---4---4--2--|
C#|------0---0---0---0---0---0---0---4---4--2--|

D#|-----------------------|
A#|-----------------------|
F#|-----------------------|
C#|----2-2-2-2--9-9-9-9-9-|
G#|----2-2-2-2--7-7-7-7-6-|
C#|----2-2-2-2--7-7-7-7-6-|

D#|------------------------------------------------------|
A#|------------------------------------------------------|
F#|------------------------------------------------------|
C#|---4-4--4---------2-2--2-2-2-2-4-4--4---------0-0-0-0-|
G#|---4-4--4-2-4-2-4-2-2--2-2-2-2-4-4--4-2-4-2-4-0-0-0-0-|
C#|---4-4--4---------2-2--2-2-2-2-4-4--4---------0-0-0-0-|


Bridge:

D#|----0-----------0-----------0---------------------------|
A#|---------2-----------2-----------0----------------------|
F#|--2-----------2-----------2-----------2------1----------|    (2x)
C#|--------------------------------------------------------|
G#|--------------------------------------------------------|
C#|--------------------------------------------------------|

D#|------0-----0---0-----0-----0---0---------0-----0---0-----0-----0---0---|
A#|----2-----2---2-----2-----2---2---------0-----0---0-----0-----0---0-----|
F#|--2-----2---------2-----2-------------2-----2---------2-----2-----------|    (2x)
C#|------------------------------------------------------------------------|
G#|------------------------------------------------------------------------|
C#|------------------------------------------------------------------------|


Solo

D#|------------------------------------------------------------------|
A#|------------------------------------------------------------------|
F#|-2-2-2-2-2-2-2-2-2-2-2-2-2--------------------------------------2-|
C#|-0-0-0-0-0-0-0-0-0-0-0-0-0-4-4-2--2-2-2-2-2-2-2-2-2-2-2-2-2-4-4-0-|
G#|-0-0-0-0-0-0-0-0-0-0-0-0-0-4-4-2--2-2-2-2-2-2-2-2-2-2-2-2-2-4-4-0-|
C#|-0-0-0-0-0-0-0-0-0-0-0-0-0-4-4-2--2-2-2-2-2-2-2-2-2-2-2-2-2-4-4-0-|

D#|------------------------------------------------------------|
A#|------------------------------------------------------------|
F#|-2-2-2-2-2-2-2-2-2-2-2-2-2----------------------------------|
C#|-0-0-0-0-0-0-0-0-0-0-0-0-0-4-4-2--2-2-2-2-2-2-2-2-9-9-9-9-9-|
G#|-0-0-0-0-0-0-0-0-0-0-0-0-0-4-4-2--2-2-2-2-2-2-2-2-7-7-7-6-6-|
C#|-0-0-0-0-0-0-0-0-0-0-0-0-0-4-4-2--2-2-2-2-2-2-2-2-7-7-7-6-6-|
Tap to rate this tab
# A B C D E F G H I J K L M N O P Q R S T U V W X Y Z