Song name
# A B C D E F G H I J K L M N O P Q R S T U V W X Y Z

Paramore - Grow Up tab

-------------------------------------------------------------------------------
                             Grow Up - Paramore
-------------------------------------------------------------------------------
Tabbed by: PhAntomNewo64
E-mail: owenpetch@icloud.com

Tuning: Drop D (DADGbe)

REMEMBER tr=Tremelo Pick and <>=Harmonic (NOT pinch harmonic, just rest your finger on 
the strings above the fret line without pressing down)

Verse

e|---------------------------------------------------------------|
B|---------------------------------------------------------------|
G|------------7--------------7-------------7---------------------|
D|---12----7------7/12----7-----7/12----7----7/12--12\9----------|
A|---12-----------7/12----------7/12---------7/12--12\9----------|
D|---12-----------7/12----------7/12---------7/12--12\9----------|

e|---------------------------------------------------------------|
B|---------------------------------------------------------------|
G|------------7------------7------------7------------------------|
D|--7\5----7-----7\5----7-----7\2----7-----7\2---2p0-------------|
A|--7\5----------7\5----------7\2----------7\2---2p0-------------|
D|--7\5----------7\5----------7\2----------7\2---2p0-------------|

e|---------------------------------------------------------------|
B|---------------------------------------------------------------|
G|------------7--------------7-------------7---------------------|
D|--7/12----7------7/12----7-----7/12----7----7/12--12\9---------|
A|--7/12-----------7/12----------7/12---------7/12--12\9---------|
D|--7/12-----------7/12----------7/12---------7/12--12\9---------|

e|---------------------------------------------------------------|
B|---------------------------------------------------------------|
G|------------7------------7------------7------------------------|
D|--7\5----7-----7\5----7-----7\2----7-----7\2---2p0--0----------|
A|--7\5----------7\5----------7\2----------7\2---2p0--0----------|
D|--7\5----------7\5----------7\2----------7\2---2p0--0----------|

Chorus

e|---------------------------------------------------------------|
B|---------------------------------------------------------------|
G|---------------------------------------------------------------|
D|---0---<12>----0---<12>----9---xx---9-9--9h12------------------|
A|---0---<12>----0---<12>----9---xx---9-9------------------------|
D|---0---<12>----0---<12>----9---xx---9-9------------------------|

e|---------------------------------------------------------------|
B|---------------------------------------------------------------|
G|---------------------------------------------------------------|
D|---5---<5>---5---<5>----2---xx---2-2--5h7----------------------|
A|---5---<5>---5---<5>----2---xx---2-2---------------------------|
D|---5---<5>---5---<5>----2---xx---2-2---------------------------|

(Play Twice)

Verse

e|---------------------------------------------------------------|
B|---------------------------------------------------------------|
G|------------7--------------7-------------7---------------------|
D|---12----7------7/12----7-----7/12----7----7/12--12\9----------|
A|---12-----------7/12----------7/12---------7/12--12\9----------|
D|---12-----------7/12----------7/12---------7/12--12\9----------|

e|---------------------------------------------------------------|
B|---------------------------------------------------------------|
G|------------7------------7------------7------------------------|
D|--7\5----7-----7\5----7-----7\2----7-----7\2---2p0-------------|
A|--7\5----------7\5----------7\2----------7\2---2p0-------------|
D|--7\5----------7\5----------7\2----------7\2---2p0-------------|

e|---------------------------------------------------------------|
B|---------------------------------------------------------------|
G|------------7--------------7-------------7---------------------|
D|--7/12----7------7/12----7-----7/12----7----7/12--12\9---------|
A|--7/12-----------7/12----------7/12---------7/12--12\9---------|
D|--7/12-----------7/12----------7/12---------7/12--12\9---------|

e|---------------------------------------------------------------|
B|---------------------------------------------------------------|
G|------------7------------7------------7------------------------|
D|--7\5----7-----7\5----7-----7\2----7-----7\2---2p0--0----------|
A|--7\5----------7\5----------7\2----------7\2---2p0--0----------|
D|--7\5----------7\5----------7\2----------7\2---2p0--0----------|

Chorus

e|---------------------------------------------------------------|
B|---------------------------------------------------------------|
G|---------------------------------------------------------------|
D|---0---<12>----0---<12>----9---xx---9-9--9h12------------------|
A|---0---<12>----0---<12>----9---xx---9-9------------------------|
D|---0---<12>----0---<12>----9---xx---9-9------------------------|

e|---------------------------------------------------------------|
B|---------------------------------------------------------------|
G|---------------------------------------------------------------|
D|---5---<5>---5---<5>----2---xx---2-2--5h7----------------------|
A|---5---<5>---5---<5>----2---xx---2-2---------------------------|
D|---5---<5>---5---<5>----2---xx---2-2---------------------------|

(Play Twice)

Bridge (Part 1)

e|---------------------------------------------------------------|
B|---------------------------------------------------------------|
G|----------7-----------7-----------7----------------------------|
D|---5---7-----7\5---7-----7\5---7-----7\5----5\2----------------|
A|---5---------7\5---------7\5---------7\5----5\2----------------|
D|---5---------7\5---------7\5---------7\5----5\2----------------|

e|---------------------------------------------------------------|
B|---------------------------------------------------------------|
G|----------7-----------7-------------7--------------------------|
D|---7\2---7-----7\2---7-----7\2---7-----7\2----2p0--------------|
A|---7\2---------7\2---------7\2---------7\2----2p0--------------|
D|---7\2---------7\2---------7\2---------7\2----2p0--------------|

(Play Twice)

Bridge (Part 2)

OPTIONAL PART (Guitar does not have to play, but if you want to, play this) Tremelo is 
also optional, either play the note once or tremelo very fast

e|---------------------------------------------------------------|
B|---------------------------------------------------------------|
G|---------------------------------------------------------------|
D|---------------------------------------------------------------|
A|---------------------------------------------------------------|
D|---5tr---7tr-2tr---0tr-5tr---7tr-2tr---0tr---------------------|

e|---------------------------------------------------------------|
B|---------------------------------------------------------------|
G|---------------------------------------------------------------|
D|---------------------------------------------------------------|
A|---------------------------------------------------------------|
D|---h5~---h7~---h2~---------------------------------------------|

Chorus

e|---------------------------------------------------------------|
B|---------------------------------------------------------------|
G|---------------------------------------------------------------|
D|---0---<12>----0---<12>----9---xx---9-9--9h12------------------|
A|---0---<12>----0---<12>----9---xx---9-9------------------------|
D|---0---<12>----0---<12>----9---xx---9-9------------------------|

e|---------------------------------------------------------------|
B|---------------------------------------------------------------|
G|---------------------------------------------------------------|
D|---5---<5>---5---<5>----2---xx---2-2--5h7----------------------|
A|---5---<5>---5---<5>----2---xx---2-2---------------------------|
D|---5---<5>---5---<5>----2---xx---2-2---------------------------|

(Play Four Times)

Outro (Also Optional-Wait until the outro builds up slightly to start playing) Tremelo 
very fast or play note once again

e|---------------------------------------------------------------|
B|---------------------------------------------------------------|
G|---------------------------------------------------------------|
D|---------------------------------------------------------------|
A|---------------------------------------------------------------|
D|---5tr---7tr-2tr---0tr-5tr---7tr-2tr---0tr---------------------|

e|---------------------------------------------------------------|
B|---------------------------------------------------------------|
G|---------------------------------------------------------------|
D|---------------------------------------------------------------|
A|---------------------------------------------------------------|
D|---5tr---7tr-2tr---0tr-5tr---7tr-2tr---0tr-5~------------------|

| /  slide up
| \  slide down
| h  hammer-on
| p  pull-off
| ~  vibrato
| <>  harmonic
| x  Mute note
| tr Tremelo pick
Tap to rate this tab
# A B C D E F G H I J K L M N O P Q R S T U V W X Y Z