Song name
# A B C D E F G H I J K L M N O P Q R S T U V W X Y Z

Paramore - Grow Up tab

Paramore - Grow Up

Drop D tuning

Key:
s    = slide
^    = bend (whole step)
~    = Vibrato
d    = down
u    = up

Intro / Verse
e|------------------------------------------------------|
B|------------------------------------------------------|
G|------7----7----7--------------7----7----7------------|
D|-----4-4--4-4--4-4------------4-4--4-4--4-4-----------|
A|---5-----5----5----5--0-2--0--------------------------|x2
D|-----------------------------5----5---2-----2--02-----|


Chorus
e|--------------------------------|--------------------------------------|
B|--------------------------------|--------------------------------------|
G|-2---2--------------------------|-2---2-------------------2--22--xx-xx-|
D|-0---0---9--99---5---5---2--22--|-0---0---9-99-9--5---5---0--00--xx-xx-|
A|-0---0---9--99---5---5---2--22--|-0---0---9-99-9--5---5---0--00--xx-xx-|
D|-0---0---9--99---5---5---2--22--|-0---0---9-99-9--5---5---0--00--xx-xx-|
                                                                   du du
Verse
e|------------------------------------------------------|
B|------------------------------------------------------|
G|------7----7----7--------------7----7----7------------|
D|-----4-4--4-4--4-4------------4-4--4-4--4-4-----------|
A|---5-----5----5----5--0-2--0--------------------------|x2
D|-----------------------------5----5---2-----2--02-----|


Chorus
e|--------------------------------|--------------------------------|
B|--------------------------------|--------------------------------|
G|-2---2--------------------------|-2---2-------------------2--22--|
D|-0---0---9--99---5---5---2--22--|-0---0---9--99---5---5---0--00--|
A|-0---0---9--99---5---5---2--22--|-0---0---9--99---5---5---0--00--|
D|-0---0---9--99---5---5---2--22--|-0---0---9--99---5---5---0--00--|


Solo 1.31
e|--------------------------------------------|
B|--------------------------------------------|
G|--7s9~~--11-7~~-------7h9p7-----------------|
D|----------------------------9----7h9p7------|  x2
A|---------------------------------------9----|
D|--------------------------------------------|


e|--------17--------17---------------17-------17-------------------|
B|-----15--------15-------15------15-------15-------15-------------|
G|-s14--------14-------14------14-------14-------14----------------|
D|-----------------------------------------------------------------|
A|-----------------------------------------------------------------|
D|-----------------------------------------------------------------|


e|--------14-------14----------------14-------14-------------------|
B|--12-15----12-15----12-15----12-15----12-15----12-15-------------|
G|-----------------------------------------------------------------|
D|-----------------------------------------------------------------|
A|-----------------------------------------------------------------|
D|-----------------------------------------------------------------|


e|--------17--------17---------------17-------17-------------------|
B|-----15--------15-------15------15-------15-------15-------------|
G|-s14--------14-------14------14-------14-------14----------------|
D|-----------------------------------------------------------------|
A|-----------------------------------------------------------------|
D|-----------------------------------------------------------------|


e|--------14-------14----------------14----------------------------|
B|--12-15----12-15----12-15----12-15----12-15-12-15-17-15~~~~~-----|
G|-----------------------------------------------------------------|
D|-----------------------------------------------------------------|
A|-----------------------------------------------------------------|
D|-----------------------------------------------------------------|

2.16

e|-----------------------------------------------------------------|
B|----17^19---15---17~~~~------------------------------------------|
G|--------------16-------------------------------------------------|
D|-----------------------------------------------------------------|
A|-----------------------------------------------------------------|
D|-----------------------------------------------------------------|


Chorus

e|--------------------------------|--------------------------------|
B|--------------------------------|--------------------------------|
G|-2---2--------------------------|-2---2-------------------2--22--|
D|-0---0---9--99---5---5---2--22--|-0---0---9--99---5---5---0--00--|
A|-0---0---9--99---5---5---2--22--|-0---0---9--99---5---5---0--00--|x2
D|-0---0---9--99---5---5---2--22--|-0---0---9--99---5---5---0--00--|


Continue solo part until end
Tap to rate this tab
 
# A B C D E F G H I J K L M N O P Q R S T U V W X Y Z