Song name
# A B C D E F G H I J K L M N O P Q R S T U V W X Y Z

Paramore - Last Hope tab

Last Hope




e|-6---1-------------1--1---------8---1---1---1---|
B|-6---1-Listen----1--1---3----8---1---1---1------|
G|-7---2--to the.---3-.2---2---.8---2---3---2------|
D|-8---3---light.----1-.3---0---10--.3---1---3----|
A|-8---3---switch.-3--3---0---10---3---3---3------|
E|-6---1-------------1--1---------8---1---1---1---|

e|-8--1-1-1--10--8-1-|
B|-8--1-1-1--10--8-1-|
G|-7--2-3-2--10--9-2-|
D|-8--3-1-3--12-10-3-|
A|-8--3-3-3--12-10-3-|
E|-6--1-1-1--10--8---|

Then:
e|---------------------------|
B|---------------------------|
G|-7--10--9---7--2-9---------|
D|-8--12-10--8--3-10---------|
A|-8--12-10--8--3-10---------|
E|-6--10--8---6--1--8--------|

Pre-Verse:
e|-6--1--2--8---1----|
B|-6--1--3--8---1----|
G|-7--2--2--9---2----|
D|-8--3--0--10--3----|
A|-8--3--0--10--3----|
E|-6--1------8---1---|

Verse: The entire thing twice.
e|-6-----5----6------5--------|
B|---6-----6----6------6------|
G|-----7------------7---------| Two Times
D|----------------------------|
A|----------------------------|
E|----------------------------|
Then:
e|-----------8p5---------5--------|
B|-8-6-----------8-6-8----6-------| Two Times
G|-------7------------------------|

Chorus: Two Times
e|----------------------------|
B|----------------------------|
G|-3--7--5---3------5---------|
D|-3--7--5---3--3--5----------|
A|-1--5--3---1--3--3----------|
E|-----------------1----------|

Next Part:
e|-------------------------|
B|-------------------------|
G|-2--7--10--9---2---------|
D|-3--8--12--10--3---------|
A|-3--8--12--10--3---------|
E|-1--6--10--8---1---------|

The next part is the second part of the intro but only playing the E, A, and D Strings.
Repeat Chorus Until next Part.
Last Part:
e|-------------------------|
B|-3------5--3------5------|
G|-3--2--5--3--2--5--------|
D|-3--3--5--3--3--5--------|
A|-1--3--3--1--3--3--------|
E|-----1---------1---------|
Tap to rate this tab
 
# A B C D E F G H I J K L M N O P Q R S T U V W X Y Z