Song name
# A B C D E F G H I J K L M N O P Q R S T U V W X Y Z

Paramore - Daydreaming tab

----------------------------------------------------------------------------
                              DAYDREAMING - Paramore
-----------------------------------------------------------------------------
Tabbed by:
E-mail: kkblue10@yahoo.com

So this is my first tab so sorry if its bad. I learned it by ear. Hope it works for you though!

Tuning:Standard

e|-2~-----5~--|
B|-3~-----7~--|
G|-2~-----7~--| x2
D|-0------5~--|
A|------------|
E|------------|

Verse:
e|-----0------0------0------0-------|
B|-------7------7------7------7-----|
G|---7------------------------------| x4
D|-7--------7------7------7---------|
A|----------------------------------|
E|----------------------------------|

e|-----0-------------------------2~---|
B|-------7-------5---------3-----3~---|
G|---7---------6---6-----4---4---2~---| x2
D|-7---------7---------5---------0~---|
A|------------------------------------|
E|------------------------------------|

e|-------------------------2~--------------------------------|
B|-7-------5-------3-------3~----7-------5-------3-----------|
G|-7-x8----6-x8----4-x8----2~----7-x8----6-x8----4-x8--------|
D|-7-------7-------5-------0~----7-------7-------5-----------|
A|-----------------------------------------------------------|
E|-----------------------------------------------------------|

*Only strum the last chord the first time through*
e|-----0-------------------------2~---|
B|-------7-------5---------3-----3~---|
G|---7---------6---6-----4---4---2~---| x2
D|-7---------7---------5---------0~---|
A|------------------------------------|
E|------------------------------------|

e|-------------------------2~--------------------------------|
B|-7-------5-------3-------3~----7-------5-------3-----------|
G|-7-x8----6-x8----4-x8----2~----7-x8----6-x8----4-x8--------|
D|-7-------7-------5-------0~----7-------7-------5-----------|
A|-----------------------------------------------------------|
E|-----------------------------------------------------------|

Chorus:
e|-2~-----5~--|
B|-3~-----7~--|
G|-2~-----7~--| x2
D|-0------5~--|
A|------------|
E|------------|

e|-----------------------------------------------|
B|-----------------------------------------------|
G|----7-----------------7------------------------|
D|----7-x8-----5--------7-x4-----7--------5------|
A|----5--------5-x8-----5--------7-x4-----5-x8---|
E|-------------3-----------------5--------3------|

Verse:
e|-----0------0------0------0-------|
B|-------7------7------7------7-----|
G|---7------------------------------| x2
D|-7--------7------7------7---------|
A|----------------------------------|
E|----------------------------------|

e|-----0-------------------------2~---|
B|-------7-------5---------3-----3~---|
G|---7---------6---6-----4---4---2~---| x2
D|-7---------7---------5---------0~---|
A|------------------------------------|
E|------------------------------------|

e|------------------------------|
B|------3--------3-------3------|
G|----2---2--------2-------2----| x8
D|--0----------0-------0--------|
A|------------------------------|
E|------------------------------|

Chorus

Bridge:

Acoustic Strumming part
e|-0~----------------2--2~----------------|
B|-3~----3~----3~----3--2~----------3~----|
G|-2~----2~----0~----0--4~----2~----0~----|
D|-0~----2~----0~----0--4~----2~----0~----|
A|-------0~----2~----0--2~----2~----2~----|
E|-------------3~----3--------------3~----|

Single note picking
****This whole section is palm muted****
e|------------------------------------------------------------|
B|------------------------------------------------------------|
G|--------------------------------------9-9-9--11(x16)--------|
D|-9-9-9-9-9--12-12-12--11-11-11-11-11------------------------|
A|------------------------------------------------------------|
E|------------------------------------------------------------|

e|-------------------------------------------------------------|
B|-------------------------------------------------------------|
G|-------------------------------------------------------------|
D|-9-9-9-9-9--12-12-12--11-11-11-11-11-------------------------|
A|--------------------------------------9-9-9--10(x16)---------|
E|-------------------------------------------------------------|

e|------------------------------------------------------------|
B|------------------------------------------------------------|
G|--------------------------------------9-9-9--11(x16)--------|
D|-9-9-9-9-9--12-12-12--11-11-11-11-11------------------------|
A|------------------------------------------------------------|
E|------------------------------------------------------------|

e|---------------------------------------------0~-------------|
B|---------------------------------------------7~-------------|
G|--------------------------------------9-9-9--7~-------------|
D|-9-9-9-9-9--12-12-12--11-11-11-11-11------------------------|
A|------------------------------------------------------------|
E|------------------------------------------------------------|

Last chorus:
e|-2~-----|
B|-3~-----|
G|-2~-x16-|
D|-0------|
A|--------|
E|--------|

e|-2~-----5~--|
B|-3~-----7~--|
G|-2~-----7~--| x4
D|-0------5~--|
A|------------|
E|------------|

e|-----------------------------------------------|
B|-----------------------------------------------|
G|----7-----------------7------------------------|
D|----7-x8-----5--------7-x4-----7--------5------| x2
A|----5--------5-x8-----5--------7-x4-----5-x8---|
E|-------------3-----------------5--------3------|

e|-2~-----5~--|
B|-3~-----7~--|
G|-2~-----7~--| x2
D|-0------5~--|
A|------------|
E|------------|


************************************

| /   slide up
| \   slide down
| h   hammer-on
| p   pull-off
| ~   vibrato
| +   harmonic
| x   Mute note
| b   Bend
| pb  Pre-bend
| br  Bend release
| pbr Pre-bend release
| brb Bend release bend

************************************
Tap to rate this tab
 
# A B C D E F G H I J K L M N O P Q R S T U V W X Y Z