Song name
# A B C D E F G H I J K L M N O P Q R S T U V W X Y Z

Paramore - Mashup tab

Paramore: Misery Business
Tabbed by: Stanley Mathew
E-mail: stanleymathew23@gmail.com

Tuning: Drop D

Intro:
e|-----------------------------------------------------------------------------|
B|-----------------------------------------------------------------------------|
G|-----------------------------------------------------------------------------|
D|-----66 6s8h10 8h10---55 55----66s8h10 8h10-----------66 6s8h10 8h10--55 55--|
A|--------------------------------------------88 88----------------------------|
E|-----------------------------------------------------------------------------|

e|-----------------------------------------------------------------------------|
B|-----------------------------------------------------------------------------|
G|--------------------5p8-----?------------------------------------------------|
D|---66 6s8h10 ---6p8 ---------------------------------------------------------|
A|-----------------------------------------------------------------------------|
E|-----------------------------------------------------------------------------|

Verse:
e|-----------------------------------------------------------------------------|
B|-----------------------------------------------------------------------------|
G|-------------------------------------------------66-66-----------------------|
D|-------------------------------------------------66-66-----------------------| x2
A|-----------1p3 1p3-------------------1p3 1p3-----44-44-----------------------|
E|----33--33----------11--11----33 33------------------------------------------|

e|-----------------------------------------------------------------------------|
B|----------99-----------------------------------------------------------------|
G|----1010---------------------------------------------------------------------|
D|-----------------------------------------------------------------------------|x7
A|-----------------------------------------------------------------------------|
E|-----------------------------------------------------------------------------|

e|-----666p888--------------------------------------------------------------------|
B|--------------------------------------------------------------------------------|
G|--------------------------------------------------------------------------------|
D|--------------------------------------------------------------------------------|
A|--------------------------------------------------------------------------------|
E|------------3333333p11111111-palm mute------------------------------------------|

Chorus:
e|-----------------------------------------------------------------------------|
B|-----------------------------------------------------------------------------|
G|-----6-----------------------------------------------------------------------|
D|-----6-x4----6------1----3----1----------------------------------------------| x2
A|-----4-------6-x4---1-x4-3-x2-1-x4-------------------------------------------|
E|-------------6------1----3----1----------------------------------------------|

e|-------------------------------------------------------------------------------|
B|-------------------------------------------------------------------------------|
G|----10--------13s-12-----------------------------------------------------------|
D|----10x7-----13s-12------x2---------------------------------------------------|
A|----8---------11s-10-----------------------------------------------------------|
E|-------------------------------------------------------------------------------|





Back to Intro:
e|-----------------------------------------------------------------------------|
B|-----------------------------------------------------------------------------|
G|-----------------------------------------------------------------------------|
D|-----66 6s8h10 8h10---55 55----66s8h10 8h10----------------------------------| end
A|--------------------------------------------88 88- 88 88---------------------|
E|-----------------------------------------------------------------------------|


************************************

| /   slide up
| \   slide down
| h   hammer-on
| p   pull-off

************************************









Still into You:


Chorus:

E------------------------------------------|
B------------------------------------------|
G------------------------------------------| Repeat this 2X then
D-88888888-10101010101010-3333333333333333-|
A-88888888-10101010101010-3333333333333333-|
D-88888888-10101010101010-3333333333333333-|

I should be over all the butterflies
But i'm into you (I'm in to you)
And baby even on our worst nights
I'm into you (I'm into you)

E------------------------------------------------------|
B------------------------------------------------------|
G-------------------------77777777---------------------|
D-88888888-10101010101010-77777777-33333333-88888888-10|
A-88888888-10101010101010-55555555-33333333-88888888-10|
D-88888888-10101010101010----------33333333-88888888-10|

Let em wonder how we got this far
Cause I don't really need to wonder at all
Yeah after all this time
I'm still into you







Legend: x=dead note
        *=palm Mute

Tuning: Drop D

Intro:

Lead:


e|--------------------------------------------------------------------------|
B|--------------------------------------------------------------------------|
G|----------10-12----------12-15----------15-17-----------------------------|
D|-10-10-10-------10-10-10-------12-12-12-------17-17-17-15------Two-Times--|
A|--------------------------------------------------------------------------|
D|--------------------------------------------------------------------------|

Rhythm:

e|--------------------------------------------------------------------------|
B|--------------------------------------------------------------------------|
G|--------------------------------------------------------------------------|
D|-6-6-6-xxxx-6-6-6-xxxx-8-8-8-xxxx-10-10-10-8------------------------------|
A|-6-6-6-xxxx-6-6-6-xxxx-8-8-8-xxxx-10-10-10-8------Two-Times---------------|
D|-6-6-6-xxxx-6-6-6-xxxx-8-8-8-xxxx-10-10-10-8------------------------------|

Verse

Lead:

on the verse part, I do believe that this is the right one except that the way of
is different...

e|-6---|-6---|-6---|-6---|
B|-6---|-6---|-6---|-6---|
G|-7---|-7---|-7---|-7---|  so on this part the first strum would be on the
D|-----|-----|-----|-----|  upward then after that would be downward...Also
A|-----|-----|-----|-----|  there's an effect that's with a delay and phaser
D|-----|-----|-----|-----|  that's how I listened to it

e|--------------------------------------------------------------------------|
B|--------------------------------------------------------------------------|
G|----------10-12----------12-15----------15-17-----------------------------|
D|-10-10-10-------10-10-10-------12-12-12-------17-17-17-15------Two-Times--|
A|--------------------------------------------------------------------------|
D|--------------------------------------------------------------------------|

e|-6---|-6---|-6---|-6---|
B|-6---|-6---|-6---|-6---|
G|-7---|-7---|-7---|-7---|  These are for the verses
D|-----|-----|-----|-----|
A|-----|-----|-----|-----|
D|-----|-----|-----|-----|

Rhythm:
Palm Mute
e|--------------------------------------------------------|
B|--------------------------------------------------------|
G|--------------------------------------------------------|  Two Times
D|-6-6-6--6-6-6--8-8-8--10-10-10--------------------------|
A|-6-6-6--6-6-6--8-8-8--10-10-10--------------------------|
E|-6-6-6--6-6-6--8-8-8--10-10-10--------------------------|
   * * *  * * *  * * *  *  *  *
e|--------------------------------------------------------------------------|
B|--------------------------------------------------------------------------|
G|--------------------------------------------------------------------------|
D|-6-6-6-xxxx-6-6-6-xxxx-8-8-8-xxxx-10-10-10-8------------------------------|
A|-6-6-6-xxxx-6-6-6-xxxx-8-8-8-xxxx-10-10-10-8------Two-Times---------------|
D|-6-6-6-xxxx-6-6-6-xxxx-8-8-8-xxxx-10-10-10-8------------------------------|

e|--------------------------------------------------------|
B|--------------------------------------------------------|
G|--------------------------------------------------------|  Two Times
D|-6-6-6--6-6-6--8-8-8--10-10-10--------------------------|
A|-6-6-6--6-6-6--8-8-8--10-10-10--------------------------|
D|-6-6-6--6-6-6--8-8-8--10-10-10--------------------------|
   * * *  * * *  * * *  *  *  *
Pre Chorus:
Lead

e|-------|
B|-------|
G|---8---|
D|---8---|   let it ring
A|---6---|
D|-------|

Rhythm:

e|-------|
B|-------|
G|-------|
D|---1---|  let it ring
A|---1---|
D|---1---|

Chorus:

Lead:
(That's what you get... heart win)
e|-15--15-----------15--15--13---13---------------------------------------|
B|--------15161516--------------------------------------------------------|
G|--15--15-----------15--15----15-----15----------------------------------|
D|------------------------------------------------------------------------|
A|------------------------------------------------------------------------|
D|------------------------------------------------------------------------|

Note: 1111= it means eleven and eleven maybe you'll get confused
(That's what you get.... heart win)
e|-15--15-----------15--15--13---13---------------------------------------|
B|--------15161516--------------------------------------------------------|
G|--15--15-----------15--15----15-----15----------------------------------|
D|------------------------------------------------------------------------|
A|------------------------------------------------------------------------|
D|------------------------------------------------------------------------|

*note: this happens on the second chorus and the last chorus
(I Drowned all....beating/I can't trust....anything but this)
e|--------------------------------------------------------------------|
B|-------------1111---------------------------------------1111--------|
G|88-1010-1212------121212--101010101010-----88-1010-1212------10(x8)-|
D|--------------------------------------------------------------------|
A|--------------------------------------------------------------------|
D|--------------------------------------------------------------------|


(That's what you get.... heart win whoa...)
e|-15--15-----------15--15--13---13---------------------------------------|
B|--------15161516--------------------------------------------------------|
G|--15--15-----------15--15----15---15------------------------------------|
D|------------------------------------------------------------------------|
A|------------------------------------------------------------------------|
D|------------------------------------------------------------------------|

Rhythm:

e|-------------------------------------|
B|-------------------------------------|
G|--------------555555-33333-----------|
D|-66666-11111--555555-33333-----------|
A|-66666-11111--333333-11111-----------|
D|-66666-11111-------------------------|

e|----------------------------------|
B|----------------------------------|
G|---------------33333333-----------|
D|-66666-11111---33333333-----------|
A|-66666-11111---11111111-----------|
D|-66666-11111----------------------|

(I Drowned all....beating/I can't trust....anything but this)
e|-------------------------------------|
B|-------------------------------------|
G|---555555-33333-555555-33333---------|
D|---555555-33333-555555-33333---------|
A|---333333-11111-333333-11111---------|
D|-------------------------------------|
(That's what you get..... heart win whoa....)
e|----------------------------------|
B|----------------------------------|
G|---------------33333333-----------|
D|-66666-11111---33333333-----------|
A|-66666-11111---11111111-----------|
D|-66666-11111----------------------|

Interlude:

Lead: Comes after rhythm's first riff

e|--------------------------------------------------------------------------|
B|--------------------------------------------------------------------------|
G|----------10-12----------12-15----------15-17-----------------------------|
D|-10-10-10-------10-10-10-------12-12-12-------17-17-17-15-----------------|
A|--------------------------------------------------------------------------|
D|--------------------------------------------------------------------------|

Rhythm:

e|--------------------------------------------------------------------------|
B|--------------------------------------------------------------------------|
G|--------------------------------------------------------------------------|
D|-6-6-6-xxxx-6-6-6-xxxx-8-8-8-xxxx-10-10-10-8------------------------------|
A|-6-6-6-xxxx-6-6-6-xxxx-8-8-8-xxxx-10-10-10-8------Two-Times---------------|
D|-6-6-6-xxxx-6-6-6-xxxx-8-8-8-xxxx-10-10-10-8------------------------------|

Verse 2

Lead is the same in verse one except the intro part

Also the same with Rhythm.... Only use the palm mute

Go back again to the pre-chorus and chorus.

Bridge:

Lead:

Still the same in the verses but changes.... in
(Why do we lie.... hurt so much)
e|--------------------------------------------------------------------------|
B|--------------------------------------------------------------------------|
G|----------10-12----------12-15----------15-17-----------------------------|
D|-10-10-10-------10-10-10-------12-12-12-------17-17-17-15---two-times-----|
A|--------------------------------------------------------------------------|
D|--------------------------------------------------------------------------|

Rhythm:
(Why..... hurt so much)
e|--------------------------------------------------------------------------|
B|--------------------------------------------------------------------------|
G|--------------------------------------------------------------------------|
D|-6-6-6-xxxx-6-6-6-xxxx-8-8-8-xxxx-10-10-10-8------------------------------|
A|-6-6-6-xxxx-6-6-6-xxxx-8-8-8-xxxx-10-10-10-8------Two-Times---------------|
D|-6-6-6-xxxx-6-6-6-xxxx-8-8-8-xxxx-10-10-10-8------------------------------|

Stop playing in the line
"That's what you get when you let your heart win"
Go back again...

e|----------------------------------|
B|----------------------------------|
G|----------------------------------|
D|-8-8-8-8-8-8-8--------------------|
A|-8-8-8-8-8-8-8--------------------|
D|-8-8-8-8-8-8-8--------------------|
   * * *  * * *
go back to chorus

Outro:

Both Rhythm and lead

e|--------------------------------------------------------------------------|
B|--------------------------------------------------------------------------|
G|-----------------------8~-------------------------------------------------|
D|-6-6-6-xxxx-6-6-6-xxxx-8~-------------------------------------------------|
A|-6-6-6-xxxx-6-6-6-xxxx-6-~------------------------------------------------|
D|-6-6-6-xxxx-6-6-6-xxxx----------------------------------------------------|
Tap to rate this tab
# A B C D E F G H I J K L M N O P Q R S T U V W X Y Z