Song name
# A B C D E F G H I J K L M N O P Q R S T U V W X Y Z

Paramore - One Of Those Crazy Girls tab

-------------------------------------------------------------------------------
                             (One of Those) Crazy Girls - Paramore
-------------------------------------------------------------------------------
Tabbed by:
E-mail:

Tuning: E Standard
The song is played with a capo on the 4th fret, but the tab is not relevant to the capo.
It is easier to use a capo when playing the 4th fret on the G string.

e|-----------------------|----------------|---------------------|-------------------------------|
B|-----------------------|----------------|--------------------6|-------------------------------|
G|--------------------11-|-10--10h11p10-8-|---------4-----------|----8--------6----4----4h6p4/--|
D|----8--9--11--9--8-----|----------------|-6---8-------8---6---|-------------------------------|
A|-----------------------|----------------|---------------------|-------------------------------|
E|12\--------------------|----------------|---------------------|-------------------------------|

e|-----------------------|----------------|---------------------|-------------------------------|
B|-----------------------|-------------11-|12-12-11-11-9-9h11p9-|-------------------------------|
G|11-----------------11--|-10-------------|---------------------|11~--13-13-11-11-10-10-8-8-6~--|
D|------11----11h13------|---------13-----|---------------------|-------------------------------|
A|-----------------------|----------------|---------------------|-------------------------------|
E|-----------------------|----------------|---------------------|-------------------------------|


************************************

| /   slide up
| \   slide down
| h   hammer-on
| p   pull-off
| ~   vibrato
************************************
Tap to rate this tab
 
# A B C D E F G H I J K L M N O P Q R S T U V W X Y Z