Song name
# A B C D E F G H I J K L M N O P Q R S T U V W X Y Z

Paramore - Oh Star tab

Help us improve GuitareTab! Take a short survey!
Song Title: "Oh Star"
Artist: Paramore
Time: 3:47
Tuning: Standard - Both guitars

Verse 1

(Guitar 1)(clean)

e|-----------------------------------------------|
B|--------0---------0------------0---------0-----|
G|----5-----5---5-----5------5-----5---5-----5---|  X  4
D|------5-----5---5-----5-------5-----5---5----5-|
A|--3---------------------3-0--------------------|
E|-----------------------------------------------|

(Guitar 2)(clean with effects)(this part, I figure, is optional) :D

e|---*12---------------------------------------|
B|-------*12-----------------------------------|
G|---------------------------------------------|
D|-------------------------10h12-10h12-10------|
A|----------------------10---------------------|
E|---------------------------------------------|

Pre-Chorus?

(Guitar 1)(distortion)

e|----------------|
B|--1-1-x-1~~-----|
G|--2-2-x-2~~-----|
D|--3-3-x-3~~-----|                
A|--x-x-x-x~~-----|               
E|--1-1-x-1~~-----|              

Then clean

e|--------------------------------|
B|--------0---------0-------------|
G|----5-----5---5-----5-----------|
D|------5-----5---5-----5---------|
A|--3-----------------------------|
E|--------------------------------|

(Guitar 2)(gain)

e|-------------------|              e|-------------------------------|
B|-------------------|              B|-------------------------------|
G|-5-\-7-\-9-11-\-12-|   x  4   or  G|---5-slide-7-slide 9-slide-12~-|
D|-x---x---x-------x-|              D|-------------------------------|
A|-3-\-5-\-7-9--\-10-|              A|-------------------------------|
E|-------------------|              E|-------------------------------|

Chorus

(Guitar 1)(distortion)(figure out the strumming)

e|-----------------------------------------|
B|-----------------------------------------|
G|--------------5555555555-----------------|
D|-7777777777---5555555555---3333333333----|
A|-7777777777---3333333333---3333333333----|
E|-5555555555----------------1111111111----|


(Guitar 2)(distortion)(gain)

e|---7--------------8-------------------12------------|
B|-----8----x4--------8---x4---------------10----x16--|
G|-9-----9--------9-----9---------10-10-------10------|
D|----------------------------------------------------|
A|----------------------------------------------------|
E|----------------------------------------------------|

Verse 2 is the same with Verse 1

then

Pre-Chorus;

Chorus; There's a break after A

(Bridge)

(Guitar 1)(distortion) will do C -- A -- C - F - G - A - C.

(Guitar 2)(distortion)

e|-15-15-15----------------------------19-19-19-------------------------|
B|----------17-17-17----------------------------20-20-20----------------|
G|-------------------17-17-17-16h17-17-------------------16-16-16-17-16-|
D|----------------------------------------------------------------------|
A|----------------------------------------------------------------------|
E|----------------------------------------------------------------------|

e|-19-19-19-------------------------------------------------------------|
B|----------20-20-20----------------------------------------------------|
G|-------------------16-16-16-17-16-------------------------------------|
D|----------------------------------3-3-3-3-5-5-5-5-7-7-7-7-10-10-10-10-|
A|----------------------------------3-3-3-3-5-5-5-5-7-7-7-7-10-10-10-10-|
E|----------------------------------1-1-1-1-3-3-3-3-5-5-5-5--8--8--8--8-|

*Another guitar will do this two times in the Full Band version. Mesh it up with the part above.

e|-15-15-15----------------------------19-19-19-------------------------|
B|----------17-17-17----------------------------20-20-20----------------|
G|-------------------17-17-17-16h17-17-------------------16-16-16-17-16-|
D|----------------------------------------------------------------------|
A|----------------------------------------------------------------------|
E|----------------------------------------------------------------------|

e|-15-15-15----------------------------|
B|----------17-17-17-------------------|
G|-------------------17-17-17-16h17-17-|
D|-------------------------------------|
A|-------------------------------------|
E|-------------------------------------|

Then, after which Guitar 2 finishes, Guitar 2 does this part, while Guitar 1 does Chorus.
 
e|-15-15-------------------------------------|
B|-------17-17-------------------------------|
G|-------------16-16-17-17-16-16-14-14-------|
D|-------------------------------------17~---|
A|-------------------------------------------|
E|-------------------------------------------|

Then finally, do this part

Outro

e|-------------------------------------------------1~~---T-----|
B|--------0---------0------------0---------0-------1~~-----H---|
G|----5-----5---5-----5------5-----5---5-----5-----2~~-------E-|
D|------5-----5---5-----5------5-----5---5-----5---3~~---E-----|
A|--3---------------------3-0----------------------3~~-----N---|
E|-------------------------------------------------1~~-------D-|

*You can do the optional part which is located on Verse 1 if you want to for a fuller outro.

Here's the bass part if you want to:

G|------------------|              |----|
D|------------------|              |----|
A|------------------| x 2 End with |----|
E|---h12-10-7h8--3--|              |-1~-|



Lyrics:



Oh star fall down on me
Let me make a wish upon you
Hold on, let me think
Think of what I'm wishing for

Wait, don't go away.
Just not yet.
Cause I thought,
I had it.
But I forget.

And I won't let you fall away,
From me.
You will never fade.
And I won't let you fall away.
From me.
You will never fade away from me.

And now I let my dreams consume me,
And tell me what to think.
But hold on,
Hold on.
What am I dreaming?

Wait, don't go away.
Just not yet.
Cause I thought,
That I had it.
But I forget.

And I won't let you fall away,
From me.
You will never fade away.
I won't let you fall away.
You will never fade away.

And I won't let you fall away.
You will never fade away.
And I won't let you fall away from me,
You will never...

Oh star fall down on me...
Related for Oh Star tab