Song name
# A B C D E F G H I J K L M N O P Q R S T U V W X Y Z

Paramore - Misery Business tab

Help us improve GuitareTab! Take a short survey!
   PARAMORE
                           Misery Business  
tabed by: Ben Marshall
Album:Riot                     

Hey every1 got board so i tabed some paramore frm c# to E for a bit of fun lol.
enjoy an dnt forget to comment.

-----

Re-tabbed by: Derrek B.

Just some minor mistakes I wanted to fix from Version 4. Nice tab though Ben.



 (0:14) INTRO
e||-------------------------|-------------------------------|
b||-------------------------|-------------------------------|
g||--------------3-5--3-5---|-------------------------------|
d||---6-6----6--------------|--5--5----5-5-5----5-----------|
a||-------------------------|-------------------------------|
E||-------------------------|-------------------------------|

e||-------------------------|------------------------------|
b||-------------------------|------------------------------|
g||--------------3-5--3-5---|------------------------------|
d||---6-6----6--------------|--3--3----3-3-3---------------|
a||-------------------------|------------------------------|
E||-------------------------|------------------------------|

e||-------------------------|-------------------------------|
b||-------------------------|-------------------------------|
g||--------------3-5--3-5---|-------------------------------|
d||---6-6----6--------------|--5--5----5-5-5----5-----------|
a||-------------------------|-------------------------------|
E||-------------------------|-------------------------------|


e||-------------------------|-------------------------|
b||-------------------------|-------------------------|
g||--------------3-5--3-5---|-----------5--8--8-------|
d||---6-6----6--------------|-------6--8--------------|
a||-------------------------|---6--8------------------|
E||-------------------------|-------------------------|

(0:25) VERSE (Does not play)

(0:36) VERSE (Comes in during "I waited eight long months...")
e||-----------------------|-------------------------|
b||--6-----6--6-6-6-9-6-9-|--6-----6--6-6-6-9-6-9---|
g||-----------------------|-------------------------|
d||-----------------------|-------------------------|
a||-----------------------|-------------------------|
E||-----------------------|-------------------------|
      1  &  2  &  3  &  4  &    1  &  2  &  3  &  4  &
e||-----------------------|-------------------------|
b||--6-----6--6-6-6-9-6-9-|--6-----6--6-6-6-4--4--4-|
g||-----------------------|-------------------------|
d||-----------------------|-------------------------|
a||-----------------------|-------------------------|
E||-----------------------|-------------------------|
      1  &  2  &  3  &  4  &    1  &  2  &  3  &  4  &
e||-----------------------|-----------------------|
b||--6-----6--6-6-6-9-6-9-|--6-----6--6-6-6-9-6-9-|
g||-----------------------|-------------------------|
d||-----------------------|-------------------------|
a||-----------------------|-------------------------|
E||-----------------------|-------------------------|
      1  &  2  &  3  &  4  &    1  &  2  &  3  &  4  &
e||-----------------------|--6-----6--6-6-6/8--8----|
b||--6-----6--6-6-6-9-6-9-|-------------------------|
g||-----------------------|-------------------------|
d||-----------------------|-------------------------|
a||-----------------------|-------------------------|
E||-----------------------|-------------------------|
      1  &  2  &  3  &  4  &    1  &  2  &  3  &  4  &

(0:47) PRE-CHORUS (Palm muted)
e||-----------------|-----------------|
b||-----------------|-----------------|
g||-----------------|-----------------|
d||-3-3-3-3-3-3-3-3-|-1-1-1-1-1-------|
a||-3-3-3-3-3-3-3-3-|-1-1-1-1-1-------|
E||-3-3-3-3-3-3-3-3-|-1-1-1-1-1-------|
    1 & 2 & 3 & 4 &   1 & 2 & 3 & 4 &



(0:50) CHORUS PT. 1 (Does not play)

(1:01) CHORUS PT. 2
e||-------------------------|-------------------------|
b||-------------------------|-------------------------|
g||-10----10----10----10----|-10----10----10-13-13-13-|
d||--x-----x-----x-----x----|--x-----x-----x--x--x--x-|
a||--8-----8-----8-----8----|--8-----8-----8-11-11-11-|
E||-------------------------|-------------------------|
     1  &  2  &  3  &  4  &    1  &  2  &  3  &  4  &
e||-------------------------|-------------------------|
b||-------------------------|-------------------------|
g||-12----12----12----12----|-12----12----12-13-13-13-|
d||--x-----x-----x-----x----|--x-----x-----x--x--x--x-|
a||-10----10----10----10----|-10----10----10-11-11-11-|
E||-------------------------|-------------------------|
     1  &  2  &  3  &  4  &    1  &  2  &  3  &  4  &

e||-------------------------|-------------------------|
b||-------------------------|-------------------------|
g||-10----10----10----10----|-10----10----10-13-13-13-|
d||--x-----x-----x-----x----|--x-----x-----x--x--x--x-|
a||--8-----8-----8-----8----|--8-----8-----8-11-11-11-|
E||-------------------------|-------------------------|
      1  &  2  &  3  &  4  &    1  &  2  &  3  &  4  &
e||-------------------------|-------------------------|
b||-------------------------|-------------------------|
g||-12----12----12----12----|-17-17-17-17-15----------|
d||--x-----x-----x-----x----|--x--x--x--x--x----------|
a||-10----10----10----10----|-15-15-15-15-13----------|
E||-------------------------|-------------------------|
     1  &  2  &  3  &  4  &    1  &  2  &  3  &  4  &

(1:12) POST-CHORUS
e||-------------------------|-------------------------|
b||-------------------------|-------------------------|
g||--------------3-5--3-5---|-------------------------|
d||---6-6----6--------------|-------------------------|
a||-------------------------|--5--5----5-5-5----5-----|
E||-------------------------|-------------------------|

e||-------------------------|-------------------------|
b||-------------------------|-------------------------|
g||--------------3-5--3-5---|-------------------------|
d||---6-6----6--------------|-------------------------|
a||-------------------------|--3--3----3-3-3----------|
E||-------------------------|-------------------------|



SOLO

(2:27) SOLO PT. 1 - Play x2
e||-------------------------|-------------------------|
b||-------------------------|-------------------------|
g||-------------------------|-------------------------|
d||-------------------------|-------------------------|
a||--6--8--8--8--8--8--8--8-|--6--8--8--8--8--8--8--8-|
E||-------------------------|-------------------------|
      1  &  2  &  3  &  4  &    1  &  2  &  3  &  4  &
e||-------------------------|-------------------------|
b||-------------------------|-------------------------|
g||-------------------------|-------------------------|
d||-------------------------|-11-11-11-11-10-10-10-10-|
a||--6--8--8--8--8--8--8--8-|-------------------------|
E||-------------------------|-------------------------|
      1  &  2  &  3  &  4  &    1  &  2  &  3  &  4  &

(2:38) SOLO PT. 2
e||-------------------------|-------------------------|
b||-------------------------|-------------------------|
g||-------------------------|-------------------------|
d||-13-13-13-13-13-13-13-13-|-11-11-11-11-11-11-11-11-|
a||-------------------------|-------------------------|
E||-------------------------|-------------------------|
      1  &  2  &  3  &  4  &    1  &  2  &  3  &  4  &
e||-------------------------|-------------------------|
b||-------------------------|-------------------------|
g||-------------------------|-------------------------|
d||-10-10-10-10-10-10-10-10-|--8--8--8--8--8--8--8--8-|
a||-------------------------|-------------------------|
E||-------------------------|-------------------------|
      1  &  2  &  3  &  4  &    1  &  2  &  3  &  4  &
e||-------------------------|-------------------------|
b||-------------------------|-------------------------|
g||-------------------------|-------------------------|
d||-13-13-13-13-13-13-13-13-|-15-15-15-15-15-15-15-15-|
a||-------------------------|-------------------------|
E||-------------------------|-------------------------|
      1  &  2  &  3  &  4  &    1  &  2  &  3  &  4  &
e||-------------------------|-------------------------|
b||-------------------------|-------------------------|
g||------15-17--------------|-------------------------|
d||-18~--------17~----------|-------------------------|
a||-------------------------|-------------------------|
E||-------------------------|-------------------------|
      1  &  2  &  3  &  4  &    1  &  2  &  3  &  4  &
Related for Misery Business tab