Song name
# A B C D E F G H I J K L M N O P Q R S T U V W X Y Z

Paranmaum - Son No Baraado tab

son no baraado


paranmaum


TRANSCRIBED BY RUDY GUZMAN


guzman_84@hotmail.com



e:--------0--2-----------------------3----------0---------5----3------|
B:-3--1---------3-1-0----------------3------------1-----------------3-|
G:--------------0-----2-0---0-2--------0------0-----------------------|
D:--------------0---------4----------------------------4--------------|
A:-2--0---------2-------------------------0----------2-------2---2--2-|
E:--------------3-----------------3-----------------------------------|

e:------0-2------3--------------|
B:-1--1--------1----------3-1-0-|
G:-----------2------0-----0-0---|
D:------------------0--0--------|
A:-0--0-------------2-----------|
E:------------------3-----------|


   hitomi ga itai yo...                                            
e:------3----------0----------5----3----------------0--------3-2-0-2---|
B:------3----------1-------------------3----------1---1------3-3-3-3-3-|
G:--------0------0---0-----------------4--------2-------2----2-2-2-2---|
D:---0---------------------4-------------4----2-----------2--0---------|
A:------------0----------2------2----2------0--------------------------|
E:-3-------------------------------------------------------------------|

e:------3----------0----------5-------------0----2-------2-------3---2---|
B:------3----------1-----------------3------1------3-------------3---3-3-|
G:--------0------0---0------------1--2------2--------2---------------2---|
D:---0---------------------4------2--0----2---2--------0-------0---0-----|
A:------------0----------2------2-2-----0--------------------------------|
E:-3------------------------------0--------------------------3-----------|


e:--------3-3------0----------5----3----------------0--------3-2-0-2---|
B:------3-3-3------1-------------------3----------1---1------3-3-3-3-3-|
G:------0-0-0----0---0-----------------4--------2-------2----2-2-2-2---|
D:---0---------------------4-------------4----2-----------2--0---------|
A:------------0----------2------2----2------0--------------------------|
E:-3-------------------------------------------------------------------|

e:------3----------0----------5-------------0----2-------2-----------3-|
B:------3----------1-----------------3------1------3---------------3---|
G:--------0------0---0------------1--2------2--------2-----------0-----|
D:---0---------------------4------2--0----2---2--------0-------0-------|
A:------------0----------2------2-2-----0------------------------------|
E:-3------------------------------0--------------------------3---------|


  haru kana...
e:-----------------------------------------------------------3-----3-2---|
B:-----4--------6---------4---------6---------4---------6--------3-----3-|
G:-----5--------6---------5---------6---------5---------7------2---------|
D:---5---5----6---6-----5---5-----6---6-----5---5-----7---7--0-----------|
A:-3--------4---------3---------4---------3---------5--------------------|
E:-----------------------------------------------------------------------|


e:----------------------------------------------------0---3-2-0-----|
B:-----4--------6---------4---------6---------4-----6-----3-----3---|
G:-----5--------6---------5---------6---------5-----7-----2-------2-|
D:---5---5----6---6-----5---5-----6---6-----5---5---7-----0---------|
A:-3--------4---------3---------4---------3---------5---------------|
E:------------------------------------------------------------------|

  anata to te a te te...
e:------3----------0----------5----3----------------0--------3-2-0-2---|
B:------3----------1-------------------3----------1---1------3-3-3-3-3-|
G:--------0------0---0-----------------4--------2-------2----2-2-2-2---|
D:---0---------------------4-------------4----2-----------2--0---------|
A:------------0----------2------2----2------0--------------------------|
E:-3-------------------------------------------------------------------|

e:------3----------0----------5-------------0----2-------2-------3--------1-|
B:------3----------1-----------------3------1------3-------------3--------3-|
G:--------0------0---0------------1--2------2--------2-------------0----2---|
D:---0---------------------4------2--0----2---2--------0-------0------0-----|
A:------------0----------2------2-2-----0-----------------------------------|
E:-3------------------------------0--------------------------3--------------|

e:------2-------------------|
B:-0----3----------3-1-0----|
G:-1----2--------0--------2-|
D:-2----0------0------------|
A:-2----0-------------------|
E:-0---------3--------------|

e:-------3-3----0-----------5-----3--------------3--3-------3---|
B:-------3-3----1--------------------3--1--0--------3-------3-3-|
G:-----0----------0---------------------------2-----0-----0-----|
D:---0-------------------4--------------------0-----0---0-------|
A:-----------0---------2-------2-----2--0-----------2-----------|
E:-3------------------------------------------------3-----------|

http://www.facebook.com/group.php?gid=7674083295&v=wall                           facebook



hillo son mex

11/08/11
Tap to rate this tab
 
# A B C D E F G H I J K L M N O P Q R S T U V W X Y Z