Song name
# A B C D E F G H I J K L M N O P Q R S T U V W X Y Z

Paranoid Social Club - Bully tab

“Bully” by: Paranoid Social Club

Tabbed by: Chris Gill(CGill1403@aol.com)

Tuning: D,A,D,G,B,e

This is the only guitar part played throughout the entire song
Dave is either not playing or playing this
E|---------------------------|
B|---------------------------|
G|---------------------------|
D|---------------------------|
A|------------5-----------5--|
D|--0---0-5-7---0---0-5-7----|

This is the awesome outro that is only played live 
and is not on the album recording
E|---------------------------------------------------------|
B|---------------------------------------------------------|
G|---------------------------------------------------------|
D|---------------------------------------------------------| -
A|--12~--0--5--3--10~--0--5--3--9~---0--5--3--7~--0--5--3--|
D|--12~--0--5--3--10~--0--5--3--9~---0--5--3--7~--0--5--3--|

E|---------------------------------------------------------|
B|---------------------------------------------------------|
G|---------------------------------------------------------|
D|---------------------------------------------------------|
A|--12~--0--17-15-10~--0--17-15-9~---0--17-15-7~--0--17-15-|
D|--12~--0--17-15-10~--0--17-15-9~---0--17-15-7~--0--17-15-|

Tap to rate this tab
# A B C D E F G H I J K L M N O P Q R S T U V W X Y Z