Song name
# A B C D E F G H I J K L M N O P Q R S T U V W X Y Z

Parijat - The Most Beautiful Splenddour tab

Its the part from 0:20 till 3:02 (more coming soon)

0:20

|-5-7-8-7-5h7p5--3-----------3-3------------------------|
|--------------------1~---1-------0-----5-5h6p5---3--5~-|
|-------------------------------------------------------|
|-------------------------------------------------------|
|-------------------------------------------------------|
|-------------------------------------------------------|
|-------------------------------------------------------|


|-5-7-8-7-5h7p5--3----------3-3-------------------------|
|-------------------1~---1-------0-----6-5---3-5~-------|
|-------------------------------------------------------|
|-------------------------------------------------------|
|-------------------------------------------------------|
|-------------------------------------------------------|

|-5-7--5--3---3/5---------------------------------------------------------|
|---------------------1-1-3-5-----3-6-5-3-1-1-3-1---1-------1-5-3-----8-5-|
|-------------------------------------------------2-----------------------|
|-------------------------------------------------------------------------|
|-------------------------------------------------------------------------|
|-------------------------------------------------------------------------|

|-5-7-8-7-5h7p5--3-----------3-3------------------------|
|--------------------1~---1-------0-----5-5h6p5-3-1-3-5-|
|-------------------------------------------------------|
|-------------------------------------------------------|
|-------------------------------------------------------|
|-------------------------------------------------------|

|-5-7-8-7-5h7p5--3-----------3-3--------|
|--------------------1~---1-------6---5-|
|---------------------------------------|
|---------------------------------------|
|---------------------------------------|
|---------------------------------------|

|-5-7-8-7-5h7p5--3-----------3-3--------------------------|
|--------------------1~---1-------0-----5h6p5-3-1-3-5-3-5-|
|---------------------------------------------------------|
|---------------------------------------------------------|
|---------------------------------------------------------|
|---------------------------------------------------------|

|-5-7-8-7-5h7p5--3-----------3-3--------|
|--------------------1~---1-------6---5-|
|---------------------------------------|
|---------------------------------------|
|---------------------------------------|
|---------------------------------------|
 
 1:42

|-------------------------5-8-7-5-3---------------------------|
|-1-3-1-5-3-6-5-3-8-1---------------5--3-5--1--6---5--8--8/10-|
|-------------------------------------------------------------|
|-------------------------------------------------------------|
|-------------------------------------------------------------|
|-------------------------------------------------------------|

|-5-7-8-7-5h7p5--3-----------3-3------------------------|
|--------------------1~---1-------0-----5h6p5-3-1-3-5---|
|-------------------------------------------------------|
|-------------------------------------------------------|
|-------------------------------------------------------|
|-------------------------------------------------------|

|-5-7-8-7-5h7p5--3-----------3-3--------|
|--------------------1~---1-------6---5-|
|---------------------------------------|
|---------------------------------------|
|---------------------------------------|
|---------------------------------------|

|-5-7-8-7-5h7p5--3-----------3-3--------------------------|
|--------------------1~---1-------0-----5h6p5-3-1-3-5-3-5-|
|---------------------------------------------------------|
|---------------------------------------------------------|
|---------------------------------------------------------|
|---------------------------------------------------------|

|-5-7-8-7-5h7p5--3----------3-3-------------------------|
|-------------------1~---1-------0-----6-5---3-5~-------|
|-------------------------------------------------------|
|-------------------------------------------------------|
|-------------------------------------------------------|
|-------------------------------------------------------|

|---------------------------|
|-5-6-8-1---3/5\3-----1-0---|
|-------------------------2-|
|---------------------------|
|---------------------------|
|---------------------------|

|-------------------------------------------|
|-----0-1-0-5-3--6-5-3-8--8-8/10--8-----6-5-|
|-0-2---------------------------------------|
|-------------------------------------------|
|-------------------------------------------|
|-------------------------------------------|

3:02
Tap to rate this tab
# A B C D E F G H I J K L M N O P Q R S T U V W X Y Z