Song name
# A B C D E F G H I J K L M N O P Q R S T U V W X Y Z

Parikrama - But It Rained tab

Title: But it rained
Band : Performed by Parikrama

Version 1.0 (I will update again.. first tab by me)

For lyrics and story: www.parikrama.com

Legends...

/    -> slide up
\    -> slide down
h    -> hammer on
p    -> pull off
hold -> hold the note for while
^    -> bend up (listen song for half and full bend, easy to understand)


Equipments/Setup:

Guitar: Les Paul model
Effect Processor: Boss GT6
Speaker: Stranger Combo AMP.

Listen b4 playing..For timings..

Solos as follows:


At 00:19

--19-17-\16------16------------\19-17--15-h-16-p-15------16---------|
-------------19-----17-19hold------------------------19-----17-19/--|
--------------------------------------------------------------------|
--------------------------------------------------------------------|
--------------------------------------------------------------------|
--------------------------------------------------------------------|


This is the violin part played on Guitar..

At 00:30

--12-p-11-h-12-p-11------9/7----------------------------------------|
------------------------------9/12---------/16--\14-----------------|
--------------------------------------------------------------------|
--------------------------------------------------------------------|
--------------------------------------------------------------------|
--------------------------------------------------------------------|


====================================
Chords and Chord picking in between.
Based on Basic chords : E A D B.
====================================
Skipping another violin part..
Kinda difficult...
===================================

Back to Guitar solo.. to the end of song.

At 3:45

--------------------------------------------------------------------|
--------------------------------------------------------------------|
-/14-\16-16-16^--13-14--11-13-14-16-14-p-13-11-9-13------8-9-9-6----|
--------------------------------------------------------------------|
--------------------------------------------------------------------|
--------------------------------------------------------------------|


Fast.. starting from \18


-----------------------------17--16-h-17--14-h-16--12-h-14----12\14-|
-------------------16-17-18--------------------------------14-------|
-6-4-3--------\18---------------------------------------------------|
-------6-4-3--------------------------------------------------------|
--------------------------------------------------------------------|
--------------------------------------------------------------------|


-16-14-16-17-17/19--21^-21^-21^-21^--19-17-16-17-17--19-17-16-17-17-|
--------------------------------------------------------------------|
--------------------------------------------------------------------|
--------------------------------------------------------------------|
--------------------------------------------------------------------|
--------------------------------------------------------------------|

-19-17-16-17-19^-19^---19-17-16/14--14/12--12/-------------19-19----|
------------------------------------------------14\16--17-----------|
--------------------------------------------------------------------|
--------------------------------------------------------------------|
--------------------------------------------------------------------|
--------------------------------------------------------------------|

-------19-19-------19-19---14-16-17-16-14\16-----16/14--------------|
-17-16-------16-14-------------------------------------16-14--------|
-------------------------------------------------------------16-14--|
--------------------------------------------------------------------|
--------------------------------------------------------------------|
--------------------------------------------------------------------|

-----------------------------14^--/12hold till fade-----------------|
----------------14\16-----------------------------------------------|
-13-h-14-p-13-------------------------------------------------------|
--------------------------------------------------------------------|
--------------------------------------------------------------------|
--------------------------------------------------------------------|
Tap to rate this tab
 
# A B C D E F G H I J K L M N O P Q R S T U V W X Y Z