Song name
# A B C D E F G H I J K L M N O P Q R S T U V W X Y Z

Park Jefferson - Couches tab

Based on astoit1323's tab.

Tuning: DAC#AC#E
Not sure about the tunings.

guit1

E |---------------------------------------|
C#|---------------------------------------|
A |------0---------0----------------------|
C#|----5---5-----5---5-------0--------0---|
A |--5---------5-----------0---0----0---0-|
D |----------------------4--------2-------|

guit2

E |---0----0-----0----0-|---------------------|
C#|-----0-----------0---|------0----------0---|
A |-0---------0---------|---------0---------0-|
C#|---------------------|--7h8--------7h8-----|
A |---------------------|---------------------|
D |---------------------|---------------------|

guit3 (starts out palm muted)

E |----------------------------|
C#|----------------------------|
A |----------------------------|
C#|-13--------0--------0-------|
A |-0--(x8)---0--(x4)--0--(x4)-|
D |-0---------4--------2-------|


It's also possible to play this in EAC#AC#E

guit1

E |---------------------------------------|
C#|---------------------------------------|
A |------0---------0----------------------|
C#|----5---5-----5---5-------0--------0---|
A |--5---------5-----------0---0----0---0-|
E |----------------------2--------0-------|

guit3

E |----------------------------|
C#|----------------------------|
A |-0--------------------------|
C#|-5---------0--------0-------|
A |-5--(x8)---0--(x4)--0--(x4)-|
E |-----------2--------0-------|
Tap to rate this tab
# A B C D E F G H I J K L M N O P Q R S T U V W X Y Z