Park Shin Hye - Without Words tab

Song: Without Words
Artist: Piano Instrumental
Album: You're Beautiful OST

Tuning: Standard

This is the instrumental version of the song..
It's originally Synth and I converted to guitar.. Hope you like it.

Missing parts will be updated real quick..

Intro:
Keys:
|-----11-13~--------11-13~-------8-9-------8-9--------------------------------9-11---------------|
|---9-------------9------------6---------6------------9-11--------9-11------9-----------9-11-13--|
|10------------10--------------------------------------------------------------------------------|
|----------------------------8---------8---------8-11--------8-11--------11----------11----------|
|------------------------------------------------------------------------------------------------|
|------------------------------------------------------------------------------------------------|

Guitar:
|--------------------------------------------------------|
|--------------------------------------------------------|
|--------------------------------------------------------|
|--------------------------------------------------------|
|-8/11-11-1111-9-8-9~--8/11-11-1111-9-8-9~--8/11-11-1111-|
|--------------------------------------------------------|


------------------------------------------------------------------------------|
------------------------------------------------------------------------------|
------------------------------------------------------------------------------|
9/11-10~------------------9/11-10-8-8~-7h8-8~---8-10-11--10h11--1010--7h8-6---|
------------------------------------------------------------------------------|
--------11---8/11-11-1111-----------------------------------------------------|

(0:21)
Keys:
|-------------------------------------------------------------------|
|------4---6---4-------4---6---4-------1---2---1-------1---2---1----|
|-------------------------------------------------------------------|
|----6---6---6---6---6---6---6---6---3---3---3---3---3---3---3---3--|
|--4---------------4---------------1---------------1----------------|
|-------------------------------------------------------------------|
Tap to rate this tab
 
# A B C D E F G H I J K L M N O P Q R S T U V W X Y Z