Song name
# A B C D E F G H I J K L M N O P Q R S T U V W X Y Z

Park Shin Hye - To Love Me tab

Title: To Love Me
Artist: Park Shin Hye
Drama: Heartstrings

Intro: F  Bb  Am Dm Gm C

e|------------------------------------------------------------|
B|--6-8-8-6-8/10--8-8-10-10b11b10-8-6-5-5-5-6/8---------------|
G|-5-------------------------------------------7--------------|
D|------------------------------------------------------------|
A|------------------------------------------------------------|
E|------------------------------------------------------------|

e|----5-6-8--5-8-12/13-12-8-5-------6--12/13-13-15-12-10-8----|
B|---------------------------8-6---6--6-----------------------|
G|-5/7----------------------------7---------------------------|
D|------------------------------------------------------------|
A|------------------------------------------------------------|
E|------------------------------------------------------------|

Verse: F C Gm C
       F C Bb C

Bridge: Bb Gm Am Dm
        Gm Bb C  C

Chorus: F  Bb  Gm  C
        F  Bb  Am Dm Gm C
        F

Solo: F  Bb  Am Dm Gm Bb C 

e|------------------------------------------------------------|
B|--6-8-8-6-8/10--8-8-10-10b11b10-8-6-5-5-5-6/8---------------|
G|-5-------------------------------------------7--------------|
D|------------------------------------------------------------|
A|------------------------------------------------------------|
E|------------------------------------------------------------|

e|----5-6-8--5-8-12/13-12-8-5-------6----6-8-6---12b13~-15-12-10-8----|
B|---------------------------8-6---6------6-----7---------------------|
G|-5/7----------------------------7---5/7-----------------------------|
D|--------------------------------------------------------------------|
A|--------------------------------------------------------------------|
E|--------------------------------------------------------------------|

Tabbed by: Vanessa Quek
Tap to rate this tab
# A B C D E F G H I J K L M N O P Q R S T U V W X Y Z