Song name
# A B C D E F G H I J K L M N O P Q R S T U V W X Y Z

Parkway Drive - Emotional Breakdown tab

drop b

alex z im doin this for my buddy


i tried

----------------------------------------------|
----------------------------------------------|
-11--13--7--11--------------------------------|
----------------------------------------------|
-9---11--5--9---------------------------------|
----------------------------------------------|

drums come in

----------------------------------------------|
----------------------------------------------|
----------------------------------------------|
-----8---7---5---3-5--------------------------|
---------------------3-3h5--------------------|
-0-0---0---0---0------------------------------|

after a couple times turn these into single note octaves
------------------------------------------------------------|
------------------------------------------------------------|
------------------------------------------------------------|
-----7-7-7-7-9-9-9-9-----5-5-5-5-7-7-7-7------2h3-----------|
-0-0-----------------0-0-----------------0-0----------------|
-0-0-----------------0-0-----------------0-0----------------|

breakdowwn
----------------------------------------------|
----------------------------------------------|
----------------------------------------------|
----------------------------------------------|
-0-0-0-0--0-0--0-0-0--0-0-0-------------------|
-0-0-0-0--0-0--0-0-0--0-0-0-------------------|


-----------------------------------------------|
-----------------------------------------------|
-----------------------------------------------|
----------------------------7------------------|
----------------------------x------------------|
-0-0-0-0--0-0--0-0-0--0-0-0-5------------------|
-0-0-0-0--0-0--0-0-0--0-0-0--------------------|

----------------------------------------------|
----------------------------------------------|
----------------------------------------------|
----------------------------------------------|
-0-0-0-0--0-0--0-0-0--0-0-0-------------------|
-0-0-0-0--0-0--0-0-0--0-0-0-------------------|


back to verse thing


----------------------------------------------|
----------------------------------------------|
----------------------------------------------|
-----8---7---5---3-5--------------------------|
---------------------3-3h5--------------------|
-0-0---0---0---0------------------------------|

2nd breakdown

------------------------------------------------|
------------------------------------------------|
------------------------------------------------|
------------------------------------------------|
-0-0-0--0-0-0---0-0-0--0-0-0---0-0-0--0-0-0-----|
-0-0-0--0-0-0---0-0-0--0-0-0---0-0-0--0-0-0-----|

------------------------------------------------|
------------------------------------------------|
--------7-----------7-------7\6-----------------|
------------------------------------------------|
-0-0-0--5--0-0-0-0--5--0-0--5\4-----------------|
-0-0-0-----0-0-0-0-----0-0----------------------|

harmony comes in

------------------------------------------------|
------------------------------------------------|
--------11----------11------11\10---------------|
------------------------------------------------|
-0-0-0--9--0-0-0-0--9--0-0--9\\8----------------|
-0-0-0-----0-0-0-0-----0-0----------------------|

outro thingy  go up and octave to add harmony

------------------------------------------------|
------------------------------------------------|
------------------------------------------------|
-----7\5-5\3-7\5-5\3-2h3------------------------|
-0-0--------------------------------------------|
-0-0--------------------------------------------|

intro outro thing

----------------------------------------------|
----------------------------------------------|
-11--13--7--11--------------------------------|
----------------------------------------------|
-9---11--5--9---------------------------------|
----------------------------------------------|


yer thats lyk 80% right ill fix it up when i can
Tap to rate this tab
# A B C D E F G H I J K L M N O P Q R S T U V W X Y Z