Song name
# A B C D E F G H I J K L M N O P Q R S T U V W X Y Z

Parkway Drive - Horizons tab

Band: Parkway Drive
Song: Horizons
Album: Horizons
Tuning: Dropped B (C# G# E B F# B high to low).

I wrote this tab in the way that I like to play songs, that is, a mix of rhythm and 
however this only really applies to
the end part of the song because for the most part, the rhythm and lead are the same 
for in one of the verses where it is harmonised.

Tabbed by Matt Mulartschuk.

Please rate and comment! If there are any errors that I may have made while writing this 
please comment it here!

0.00 - 0.22 (rhythm continues)
|--7-----7-----10-----2-----2-----5-----3-----3-----7----5-----7-----2--|
|----0-----0------------0-----0-----0-----0-----0-----0----0-----0------|
|------0-----0------------0-----0-----0-----0-----0----------0-----0----|
|-----------------------------------------------------------------------|
|-----------------------------------------------------------------------|
|-----------------------------------------------------------------------|


0.22 - 0.51
|------------------------------------------------------|
|------------------------------------------------------|
|-----------------------------4--5--7--------4--5--7---|
|--2-----2-----\-slide----2---4--3--7----2---4--5--7---|
|--2-----2-----\----------2---2--3--5----2---2--3--5---|
|--2-----2-----\----------2--------------2-------------|

0.52 - 1.04
|--------------------------------------------------------------------|
|--------------------------------------------------------------------|
|-5555555555555555---7777777777777777---5555555555555555---77777777--|
|-5555555555555555---7777777777777777---5555555555555555---55555555--|
|-3333333333333333---5555555555555555---3333333333333333---55555555--|
|--------------------------------------------------------------------|
  ****************   ****************   ****************   ********


1.05 - 1.10
Fill:
|---------|
|---------|
|---------|
|-5--4--2-|
|-5--4--2-|
|-5--4--2-|


1.11 - 1.17
|-------------------------------------------|
|-------------------------------------------|
|-------------------------------------------|
|-------------------------------------------|
|-----5h7h8-----7h8h10-----3----8---7p5p3---|
|-000-------000--------000---0----0---------|
  ***       ***        ***   *    *


1.18 - 1.30
|----------------------------------------------|
|----------------------------------------------|
|----------------------------------------------|
|----------------------------------------------|
|-----7h8h10------8h10h12-----12---10---8p7p5--|
|-555---------777---------888----8----8--------|
  ***         ***         ***    *    *


1.31 - 1.37
|-------------------------------------------|
|-------------------------------------------|
|-------------------------------------------|
|-------------------------------------------|
|-----5h7h8-----7h8h10-----3----8----7p5p3--|
|-000-------000--------000---0----0---------|
  ***       ***        ***   *    *


1.38 - 1.34
|----------------------------------------------|
|----------------------------------------------|
|-----------------------------10---8----7p5p3--|
|-----7h8h10------8h10h12----------------------|
|----------------------------------------------|
|-555---------777---------888----8---8---------|
  ***         ***         ***    *   *


1.35 - 2.04
|------------------------------------------------------------|
|------------------------------------------------------------|
|------------------------------------------------------------|
|-0-0--0000--0000-0000--0-0--0000------3---(3)---------------|
|-0-0--0000--0000-0000--0-0--0000--------7----------3p2(h3)--|
|-0-0--0000--0000-0000--0-0--0000--000----------000----------|
  * *  ****  **** ****  * *  ****  ***          ***


2.04 - 2.11
|---------------------------------------------------|
|---------------------------------------------------|
|---------------------------------------------------|
|-0-0--0000--0000-0000--0-0--0000--777-555----------|
|-0-0--0000--0000-0000--0-0--0000----------333------|
|-0-0--0000--0000-0000--0-0--0000--------------555--|
  * *  ****  **** ****  * *  ****


2.12 - 2.37
|-----------------------------------------------------------------------|
|-----------------------------------------------------------------------|
|-----------------------------------------------------------------------|
|-----------------------------------------------------------------------|
|------7---8---7-8------7---8---7-8-------8---8p7-5-7------5---5p3---3--|
|--888---8---8------555---5---5-------000---0----------333---3-----3----|
   ***   *   *      ***   *   *       ***   *          ***   *     *

2.38 - 2.40
Fill:
|-------|
|-------|
|-------|
|--0----|
|--0----|
|--0----|

2.41 - 2.43
|-------------------------------------------|
|-------------------------------------------|
|-------------------------------------------|
|-------------------------------------------|
|-----5h7h8-----7h8h10-----3---8----7p5p3---|
|-000-------000--------000---0----0---------|
  ***       ***        ***   *    *


2.44 - 2.57
|----------------------------------------------|
|----------------------------------------------|
|----------------------------------------------|
|----------------------------------------------|
|-----7h8h10------8h10h12-----12---10---8p7p5--|
|-555---------777---------888----8----8--------|
  ***         ***         ***    *    *


2.58 - 3.03
Fill:
|------------------------|
|------------------------|
|------------7-----------|
|--0-----0---7-----------|
|--0-----0---5---0000----|
|--0-----0-------0000----|
                 ****


3.04 - 3.16
|------------------------------------------|
|------------------------------------------|
|------------------------------------------|
|-0--------0--------0------0------0--------|
|-0-00000--0-00000--0-000--0-000--0-00000--|
|-0-00000--0-00000--0-000--0-000--0-00000--|
    *****    *****    ***    ***    *****


3.17 - 3.28
|--------------------------------------------------------------------------|
|--------3----------3-------------------3----------3-------------------3---|
|--------2----------2-------------------2----------2-------------------2---|
|--------0----------0-------------------0----------0-------------------0---|
|-000-0--0---000-0--0---000-000--000-0--0---000-0--0---000-000--000-0--0---|
|-000-0--0---000-0--0---000-000--000-0--0---000-0--0---000-000--000-0--0---|
  *** *      *** *      *** ***  *** *      *** *      *** ***  *** *

|-----------------------------------------------------|
|--------3----------3-------------------3----------3--|
|--------2----------2-------------------2----------2--|
|--------0----------0-------------------0----------0--|
|-000-0--0---000-0--0---000-000--000-0--0---000-0--0--|
|-000-0--0---000-0--0---000-000--000-0--0---000-0--0--|
  *** *      *** *      *** ***  *** *      *** *


3.29 - 3.32
|-------------------|
|-------------------|
|-------------------|
|----------------7--|
|-------3--------3--|
|-0h3h7---7-5----3--|


3.33 - 3.55
|-------------------------------------------------------|
|-------------------------------------------------------|
|------------------9s10s9--7------------------7s9-9-9---|
|--------------10--------------------------7------------|
|-------3-------7--7s8s-7--5--------3------3--5s7-7-7---|
|-0h3h7----7-5--7-------------0h3h7---7-5--3------------|

|-----------------------------|
|-----------------------------|
|------------------7s9s7-5-4--|
|--------------10-------------|
|-------3------7---5s7s5-3-2--|
|-0h3h7---7-5--7--------------|


3.56 - 4.20
|----------------------------------------------------------------------------|
|----------------------------------------------------------------------------|
|------12s14-14-14-16-17-------12s14-14-14--14s12-12-------12s14-14-14-16-17-|
|--3-----------------------7---------------------------3---------------------|
|--3---10s12-12-12-14-15---7---10s12-12-12--12s10-10---3---10s12-12-12-14-15-|
|--3-----------------------7---------------------------3---------------------|

|-------------------------------------------|
|-------------------------------------------|
|------12s14-14-14---9-10-9h10-0-7-5-4h5p4--|
|--7----------------------------------------|
|--7---10s12-12-12--------------------------|
|--7----------------------------------------|

Rhythm Fill (can be played instead of the second half of the above tab).
|------------------------------|
|------------------------------|
|-12-14-12h14-0--------------0-|
|----------------12-14-12h14---|
|------------------------------|
|------------------------------|


4.21 - 4.33
Sweep picked:
|----------17h19p17--------------------17h19p17----------------------17h19p17-----------|
|-------17----------17--------------17----------17---------------17-----------17--------|
|----17----------------17--------17----------------17---------17-----------------17-----|
|-19---------------------19---19----------------------19---19-----------------------19--|
|---------------------------------------------------------------------------------------|
|---------------------------------------------------------------------------------------|

|----------17h19h17---------------------19h20p19-17--------------------19h20p19-17-----------|
|-------17----------17---------------17-------------17--------------17-------------17--------|
|----17----------------17---------17------------------17---------17-------------------17-----|
|-19----------------------19---19------------------------19---19-------------------------19--|
|--------------------------------------------------------------------------------------------|
|--------------------------------------------------------------------------------------------|

|----------19h20p19-17---------------------20h22p19-17---------------------17h19p17-----------|
|-------17-------------17---------------17-------------17---------------17----------17--------|
|----17-------------------17---------17-------------------17---------17----------------17-----|
|-19-------------------------19---19-------------------------19---19----------------------19--|
|---------------------------------------------------------------------------------------------|
|---------------------------------------------------------------------------------------------|

|----------17h19p17--------------------17h19p17----------------------17h19p17-----------|
|-------17----------17--------------17----------17---------------17-----------17--------|
|----17----------------17--------17----------------17---------17-----------------17-----|
|-19---------------------19---19----------------------19---19-----------------------19--|
|---------------------------------------------------------------------------------------|
|---------------------------------------------------------------------------------------|

|----------19h20p19-17--------------------19h20p19-17------------------------|
|-------17-------------17---------------17-------------17-------------17-----|
|----17-------------------17---------17------------------17---------17-------|
|-19-------------------------19---19-----------------------19----19----------|
|----------------------------------------------------------------------------|
|----------------------------------------------------------------------------|


Lead Fill:
|------------------------|
|------------------------|
|-9-10-9h10-0-7-5-4h5p4--|
|------------------------|
|------------------------|
|------------------------|

Rhythm Fill:
|------------------------------|
|------------------------------|
|-12-14-12h14-0--------------0-|
|----------------12-14-12h14---|
|------------------------------|
|------------------------------|


4.34 - 4.45
|-t12p8p5h8-x6---10p7p3h7-x2--|
|-----------------------------|
|-----------------------------|
|-----------------------------|
|-----------------------------|
|-----------------------------|

Lead Fill:
|------------------------|
|------------------------|
|-9-10-9h10-0-7-5-4h5p4--|
|------------------------|
|------------------------|
|------------------------|

Rhythm Fill:
|------------------------------|
|------------------------------|
|-12-14-12h14-0--------------0-|
|----------------12-14-12h14---|
|------------------------------|
|------------------------------|


4.46 - 4.58
|----------------------------------------------------------------------------|
|----------------------------------------------------------------------------|
|------12s14-14-14-16-17-------12s14-14-14--14s12-12-------12s14-14-14-16-17-|
|--3-----------------------7---------------------------3---------------------|
|--3---10s12-12-12-14-15---7---10s12-12-12--12s10-10---3---10s12-12-12-14-15-|
|--3-----------------------7---------------------------3---------------------|

|-------------------------------------------|
|-------------------------------------------|
|------12s14-14-14---9-10-9h10-0-7-5-4h5p4--|
|--7----------------------------------------|
|--7---10s12-12-12--------------------------|
|--7----------------------------------------|

Rhythm Fill (can be played instead of the second half of the above tab).
|------------------------------|
|------------------------------|
|-12-14-12h14-0--------------0-|
|----------------12-14-12h14---|
|------------------------------|
|------------------------------|


4.49 - End.
|-t12p8p5h8-x6---10p7p3h7-x2--|
|-----------------------------|
|-----------------------------|
|-----------------------------|
|-----------------------------|
|-----------------------------|
Tap to rate this tab
# A B C D E F G H I J K L M N O P Q R S T U V W X Y Z