Song name
# A B C D E F G H I J K L M N O P Q R S T U V W X Y Z

Parkway Drive - A Cold Day In Hell tab

Ok, don't yell at me if this isn't 100% correct b/c this is my first real time tabbing.  
say it is 95% correct.

Db|-------------------------------------------------------------------------|
Ab|-------------------------------------------------------------------------|
E |-----------------2-----------2-------------------------------------------|
B |---3-2-3---2-3-5---5-3-2-3-5---5-3---------------------------------------|
Gb|-5-------5------------------------3--------------------------------------|
B |-------------------------------------------------------------------------|

Db|-------------------------------------------------------------------------|
Ab|-------------------------------------------------------------------------|
E |-----------------2-----------5-3-----------------------------------------|
B |---3-2-3---2-3-5---5-3-2-3-5---------------------------------------------|
Gb|-5-------5---------------------------------------------------------------|
B |-------------------------------------------------------------------------|

Db|-------------------------------------------------------------------------|
Ab|-------------------------------------------------------------------------|
E |-----------------2-----------2-------------------------------------------|
B |---3-2-3---2-3-5---5-3-2-3-5---5-3---------------------------------------|
Gb|-5-------5------------------------3--------------------------------------|
B |-------------------------------------------------------------------------|

Db|--------------------------------------------------------------------------|
Ab|--------------------------------------------------------------------------|
E |-----------------2-----------5-3------------------------------------------|
B |---3-2-3---2-3-5---5-3-2-3-5----------------------------------------------|
Gb|-5-------5----------------------------------------------------------------|
B |--------------------------------------------------------------------------|
Tap to rate this tab
# A B C D E F G H I J K L M N O P Q R S T U V W X Y Z