Song name
# A B C D E F G H I J K L M N O P Q R S T U V W X Y Z

Parkway Drive - Begin tab

Artist: Parkway Drive
Song: Begin
Album: Horizons
Tuning: Drop B  

Guitar 1 - Left 
C#|------7----------7----------8----------12-------|
G#|---10---10----10---10----12---12----10----10----|
E |-9---------10---------12---------12-------------|    
B |------------------------------------------------|
F#|------------------------------------------------|
B |------------------------------------------------|


Guitar 2 - Right
C#|-12----12----10----10----8----8-10~---12------|
G#|----10----10----13----13---12------10---------|
E |-----------------------------------------9----|
B |----------------------------------------------|
F#|----------------------------------------------|
B |----------------------------------------------|

Tabbed by: AJ Sarmiento 
Tap to rate this tab
# A B C D E F G H I J K L M N O P Q R S T U V W X Y Z