Song name
# A B C D E F G H I J K L M N O P Q R S T U V W X Y Z

Parkway Drive - Gimme A D tab

This is the solo for Gimme a D. The solo's in the full song tabs are pretty much correct 
this is an easier way to play it because I tabbed the fast picking on the same string. 
is the sickest solo to play once you get it down.

2:31

C#|------------------------------------------------------------------------|
G#|------------------------------------------------------------------------|
 E|-12121212-10101010-15151515-14141414-14141414-12121212-17171717-15151515|
 B|------------------------------------------------------------------------|
F#|------------------------------------------------------------------------|
 B|------------------------------------------------------------------------|

C#|------------------------------------------------------------------------|
G#|------------------------------------------------------------------------|
 E|-15151515-14141414-19191919-17171717-17171717-15151515-20202020-19191919|
 B|------------------------------------------------------------------------|
F#|------------------------------------------------------------------------|
 B|------------------------------------------------------------------------|

C#|-------------------17171717-13131313-15151515-12121212-13131313-10101010|
G#|-20b-20b------7*b-------------------------------------------------------|
 E|------------------------------------------------------------------------|
 B|----------8b------------------------------------------------------------|
F#|------------------------------------------------------------------------|
 B|------------------------------------------------------------------------|

C#|-12121212-8888----------------------------------------------------------|
G#|------------------------------------------------------------------------|
 E|---------------------15-15-------14-14-------10-10-------9-9------------|
 B|---------------12-12-------12-12-------12-12-------12-12----------------|
F#|------------------------------------------------------------------------|
 B|------------------------------------------------------------------------|
                  .  .        .  .        .  .        .  .

C#|---(tapping)------------------------------------------------------------|
G#|------------------------------------------------------------------------|
 E|-12p10p9-12p10p9--14p12p10-14p12p10--15p14p12-15p14p12-17p15p14-17p15p14|
 B|------------------------------------------------------------------------|
F#|------------------------------------------------------------------------|
 B|------------------------------------------------------------------------|

C#|-----------20-18-15-15-x2--18-17-15-15-x2-------------------------------|
G#|--15b 15b----------------------------------20-18-15-15------------------|
 E|--------------------------------------------------------19-17-15-15-----|
 B|------------------------------------------------------------------------|
F#|------------------------------------------------------------------------|
 B|------------------------------------------------------------------------|

C#|------------------------------------------------------------------------|
G#|----------------------------10b-10b-------------------------------------|
 E|--17-15-12-12--15-13-12-12--12b-12b-12----------------------------------|
 B|------------------------------------------------------------------------|
F#|----------------------------------------\pickslide\---------------------|
 B|-----------------------------------------------------\pickslide\--------|
Tap to rate this tab
# A B C D E F G H I J K L M N O P Q R S T U V W X Y Z