Song name
# A B C D E F G H I J K L M N O P Q R S T U V W X Y Z

Parkway Drive - Romance Is Dead tab

Romance Is Dead




Intro




Guitar 1                                Ending 1
E|--------------------------------------|-------------------------------------|
B|--------------------------------------|-------------------------------------|
G|--------------------------------------|-------------------------------------|
D|---3-----3---------3------------------|---3-----3---------3-------2---------|
A|-----7-7---7-7-3-5---5--0-0-000-0-0---|-----7-7---7-7-3-5---5-0-5---3-0-3---|
E|------------------------0-0-000-0-0---|-------------------------------------|
                          . . ... . .

Guitar 2
E|--------------------------------------|-------------------------------------|
B|--------------------------------------|-------------------------------------|
G|--------------------------------------|-------------------------------------|
D|--------------------------------------|-------------------------------------|
A|------------------------0-0-000-0-0---|-------------------------------------|
E|------------------------0-0-000-0-0---|-------------------------------------|
                          . . ... . .

Guitar 1 - Ending 2
E|---------------------------------------|
B|---------------------------------------|
G|---------------------------/10-10-9----|
D|---3-----3---------3-------/12-12-12---|
A|-----7-7---7-7-3-5---5-0-5-------------|
E|---------------------------------------|


Both Guitars Play Guitar 1's Riff two times in total (remember to play the endings)




Verse




Guitar 1 & 2
E|---------------------------------------|---------------------------------------|
B|---------------------------------------|---------------------------------------|
G|---------------------------------------|---------------------------------------|
D|--------------------------------10-----|--------------------------------10-----|
A|-------------12---8~--------7------7---|-------------12---8/10-8-7-8~-7----7---|
E|---12-00-0-0----0----0-10-0---0--------|---12-00-0-0----0----------------------|
        ..   .    .    .    .   .               ..   .    . 



Verse Part 2




Guitar 1
E|-------------------------------------|-------------------------------------|
B|-------------------------------------|-------------------------------------|
G|-------------------------------------|-------------------------------------|
D|-----------------------------7-7-7---|---------------------7-7-7-5-5-5-5---|
A|---0-----0---0-0-----0---0---8-8-8---|---0-----0---0-0-----8-8-8-7-7-7-7---|
E|---0-0-0-0-0-0-0-0-0-0-0-0-0---------|---0-0-0-0-0-0-0-0-0-----------------|
       . .   .     . .   .   .               . .   .     . .

Guitar 2
E|-------------------------------------|-------------------------------------|
B|-------------------------------------|-------------------------------------|
G|-------------------------------------|-------------------------------------|
D|-----------------------------3-3-3---|---------------------3-3-3-2-2-2-2---|
A|---0-----0---0-0-----0---0---5-5-5---|---0-----0---0-0-----5-5-5-3-3-3-3---|
E|---0-0-0-0-0-0-0-0-0-0-0-0-0---------|---0-0-0-0-0-0-0-0-0-----------------|
       . .   .     . .   .   .               . .   .     . .


Mini Breakdown



Guitar 1
E|-------------------------------------|-------------------------------------|
B|-------------------------------------|-------------------------------------|
G|-------------------------------------|-------------------------------------|
D|-----------------------------7-7-7---|---------------------7-7-7-5-5-5-5---|
A|---0-----0---0-0-------------8-8-8---|---0-----0---0-0-----8-8-8-7-7-7-7---|
E|---0-0-0-0-0-0-0-----0-0-0-0---------|---0-0-0-0-0-0-0-0-0-----------------|
       . .   .         . . . .               . .   .     . .

Guitar 2
E|-------------------------------------|-------------------------------------|
B|-------------------------------------|-------------------------------------|
G|-------------------------------------|-------------------------------------|
D|-----------------------------3-3-3---|---------------------3-3-3-2-2-2-2---|
A|---0-----0---0-0-------------5-5-5---|---0-----0---0-0-----5-5-5-3-3-3-3---|
E|---0-0-0-0-0-0-0-----0-0-0-0---------|---0-0-0-0-0-0-0-0-0-----------------|
       . .   .         . . . .               . .   .     . .



Pre-Breakdown



Guitar 1                                Ending 1
E|--------------------------------------|-------------------------------------|
B|--------------------------------------|-------------------------------------|
G|--------------------------------------|-------------------------------------|
D|---3-----3---------3------------------|---3-----3---------3-------2---------|
A|-----7-7---7-7-3-5---5--0-0-000-0-0---|-----7-7---7-7-3-5---5-0-5---3-0-3---|
E|------------------------0-0-000-0-0---|-------------------------------------|
                          . . ... . .

Guitar 2 Does not play this part. Guitar 2 joins after two of these riffs:


Guitar 1 & 2                               
E|--------------------------------------|-------------------------------------|
B|--------------------------------------|-------------------------------------|
G|--------------------------------------|-------------------------------------|
D|---3-----3---------3------------------|---3-----3---------3-------2---------|
A|-----7-7---7-7-3-5---5--000-000-000---|-----7-7---7-7-3-5---5-0-5---3-0-3---|
E|------------------------000-000-000---|-------------------------------------|
                          ... ... ...

Guitar 1
E|---------------------|
B|---------------------|
G|---------------------|
D|-----5-3-----3---2---|
A|---0-3-1-3-0-1-3-0---|
E|---0-----3-0---3-----|


Guitar 1 & 2
E|----------------------------------------------------------------------------|
B|----------------------------------------------------------------------------|
G|----------------------------------------------------------------------------|
D|----------------------------------------------------------------------------|
A|---------------------------------------------------0000--0000--0000--0000---|
E|---0000--0000--0000--0000--0000--0000--0000--0000--0000--0000--0000--0000---|
     ....  ....  ....  ....  ....  ....  ....  ....  ....  ....  ....  ....

Guitar 2
E|---------------------|
B|---------------------|
G|---------------0-----|
D|---3-------2-----2---|
A|-----5-0-5---3-------|
E|---------------------|




Breakdown




Guitar 1
E|------------------------------------------------------------------|
B|------------------------------------------------------------------|
G|------------------------------------------------3---3-------------|
D|--------------------------------------------------7---7-3---3-----| x2
A|---0-0-0-0-00-00--0-0-0-0-00-00--0-0-0-0-00-00------------7---7---|
E|---0-0-0-0-00-00--0-0-0-0-00-00--0-0-0-0-00-00--------------------|
     . . . . .. ..  . . . . .. ..  . . . . .. ..

Guitar 2
E|------------------------------------------------------------------|
B|------------------------------------------------------------------|
G|------------------------------------------------------------0-----|
D|------------------------------------------------3-------2-----2---| x2
A|---0-0-0-0-00-00--0-0-0-0-00-00--0-0-0-0-00-00----5-0-5---3-------|
E|---0-0-0-0-00-00--0-0-0-0-00-00--0-0-0-0-00-00--------------------|
     . . . . .. ..  . . . . .. ..  . . . . .. ..

The Second Time you play this riff, only play the open notes; pause for the ending.




Breakdown Part 2 - (slightly different)




Guitar 1
E|---------------------------------------------------------------------|
B|---------------------------------------------------------------------|
G|---------------------------------------------------3---3-------------|
D|-----------------------------------------------------7---7-3---3-----| x2
A|---0000-0-0-00-00--0000-0-0-00-00--0000-0-0-00-00------------7---7---|
E|---0000-0-0-00-00--0000-0-0-00-00--0000-0-0-00-00--------------------|
     .... . . .. ..  .... . . .. ..  .... . . .. .. 

Guitar 2
E|---------------------------------------------------------------------|
B|---------------------------------------------------------------------|
G|---------------------------------------------------------------0-----|
D|---------------------------------------------------3-------2-----2---| x2
A|---0000-0-0-00-00--0000-0-0-00-00--0000-0-0-00-00----5-0-5---3-------|
E|---0000-0-0-00-00--0000-0-0-00-00--0000-0-0-00-00--------------------|
     .... . . .. ..  .... . . .. ..  .... . . .. ..





Verse




Guitar 1 plays this alone for the first time through
E|---------------------------------------|---------------------------------------|
B|---------------------------------------|---------------------------------------|
G|---------------------------------------|---------------------------------------|
D|--------------------------------10-----|--------------------------------10-----|
A|-------------12---8~--------7------7---|-------------12---8/10-8-7-8~-7----7---|
E|---12-00-0-0----0----0-10-0---0--------|---12-00-0-0----0----------------------|
        ..   .    .    .    .   .               ..   .    . 

Both Guitars then play it 3 times and end with:

E|--------------------------------------|-------------------------------------|
B|--------------------------------------|-------------------------------------|
G|--------------------------------------|-------------------------------------|
D|--------------------------------------|-------------------------------------|
A|---8/10-8-7-8~----8/12-10-8-10-8-7~---|-------------------------------------|
E|---------------10---------------------|---000-000-000-000-000-000-000-000---|
                                            ... ... ... ... ... ... ... ...

E|--------------------------------------|-------------------------------------|
B|--------------------------------------|-------------------------------------|
G|--------------------------------------|-------------------------------------|
D|--------------------------------------|-------------------------------------|
A|---8/10-8-7-8~----8/12-10-8-10-8-7~---|-------------------------------------|
E|---------------10---------------------|-------------------000-000-000-000---|
                                                            ... ... ... ...



Outro



Guitar 1
E|-----------------------------------------------------|
B|-----------------------------------------------------|
G|-----------------------------------------------------|
D|---14-14-------10-10-12-12-14-14-12-12-10-10---------|
A|---------10-10-------------------------------10-10---|
E|-----------------------------------------------------|

Guitar 2
E|-----------------------------------------------------|
B|-----------------------------------------------------|
G|-----------------------------------------------------|
D|---3~~~----------------------------------------------|
A|---3~~~----------------------------------------------|
E|---3~~~----------------------------------------------|

Guitar 1
E|-----------------------------------------------------|
B|-----------------------------------------------------|
G|-----------------------------------------------------|
D|---14-14-------10-10-12-12-14-14-12-12-10-10---------|
A|---------10-10-------------------------------10-10---|
E|-----------------------------------------------------|

Guitar 2
E|-----------------------------------------------------|
B|-----------------------------------------------------|
G|-----------------------------------------------------|
D|---------------------------7~~~----------------------|
A|---------------------------5~~~----------------------|
E|-----------------------------------------------------|

Guitar 1
E|-------------------------------------------------|
B|-------------------------------------------------|
G|-------------------------------------------------|
D|---12-12-------9-9-10-10-12-12-10-10-9-9---------|
A|---------10-10---------------------------10-10---|
E|-------------------------------------------------|

Guitar 2
E|-------------------------------------------------|
B|-------------------------------------------------|
G|-------------------------------------------------|
D|---0~~~------------------------------------------|
A|---0~~~------------------------------------------|
E|---0~~~------------------------------------------|

Guitar 1
E|-------------------------------------------------|
B|-------------------------------------------------|
G|-------------------------------------------------|
D|---12-12-------9-9-10-10-12-12-10-10-9-9---------|
A|---------10-10---------------------------10-10---|
E|-------------------------------------------------|

Guitar 2
E|-------------------------------------------------|
B|-------------------------------------------------|
G|-------------------------------------------------|
D|-------------------------7~~~--------------------|
A|-------------------------3~~~--------------------|
E|-------------------------------------------------|



Part 2



Guitar 1
E|-----------------------------------------------------|
B|-----------------------------------------------------|
G|-----------------------------------------------------|
D|---14-14-------10-10-12-12-14-14-12-12-10-10---------| x2
A|---------10-10-------------------------------10-10---|
E|-----------------------------------------------------|

Guitar 1
E|-------------------------------------------------|
B|-------------------------------------------------|
G|-------------------------------------------------|
D|---12-12-------9-9-10-10-12-12-10-10-9-9---------|
A|---------10-10---------------------------10-10---|
E|-------------------------------------------------|



Guitar 2
E|-----------------------------------------------------|
B|-----------------------------------------------------|
G|-----------------------------------------------------|
D|---3-----3--3-----3--3--------------------7--7--7----| x1
A|---3--3--3--3--3--3--3--3--3--3--3--3--3--5--5--5----|
E|---3--3--3--3--3--3--3--3--3--3--3--3--3-------------|
        .        .        .  .  .  .  .  . 

E|-----------------------------------------------------|
B|-----------------------------------------------------|
G|-----------------------------------------------------|
D|---0-----0--0-----0--0--------------------12-12-12---| x1
A|---0--0--0--0--0--0--0--0--0--0--0--0--0--10-10-10---|
E|---0--0--0--0--0--0--0--0--0--0--0--0--0-------------|
        .        .        .  .  .  .  .  . 



Part 3 - (tapping)



Guitar 1
E|---t13p5-t12p5-t15p5-t13p5-t12p5-t10p5-t12p5-t10p5---|
B|-----------------------------------------------------|
D|-----------------------------------------------------|
G|-----------------------------------------------------|
A|-----------------------------------------------------|
E|-----------------------------------------------------|

E|---t8p3-t7p3-t10p3-t8p3-t7p3-t5p3-t7p3-t5p3---|
B|----------------------------------------------|
D|----------------------------------------------|
G|----------------------------------------------|
A|----------------------------------------------|
E|----------------------------------------------|




Final Outro Riff



Guitar 1 & 2
E|----------------------------------------------------------------------|
B|----------------------------------------------------------------------|
D|-------10/12-12-------------------------------------------------------|
G|---7~-----------10-9~--5~--7/9-9-5-7~--3~--5-5-7-9~--5~--7/9-9-5-7~---| x4
A|---7~------------------5~--------------3~------------5~---------------|
E|---7~------------------5~--------------3~------------5~---------------|


Guitar 1 & 2
E|---------------------------------------|
B|---------------------------------------|
D|-------10/12-12------------------------|
G|---7~-----------10-9~--5~--7/9-9-5-7~--| x4
A|---7~------------------5~--------------|
E|---7~------------------5~--------------|

Tap to rate this tab
 
# A B C D E F G H I J K L M N O P Q R S T U V W X Y Z