Song name
# A B C D E F G H I J K L M N O P Q R S T U V W X Y Z

Parkway Drive - Picture Perfect Pathetic tab

Song: Picture Perfect, Pathetic
Artist: Parkway Drive
Album: Killing With A Smile


Drum Intro

|---------------------------------------------
|---------------------------------------------
|---------------------------------------------                          ---|
|---------------------------------------------                             |
|--0h5h8-0h3h7-0------8---5-----0h5h8-0h3h7-0-                             |
|--------------0--0-0---0---0-0-------------0-                             |
                  . .   .   . .                                            |
                                                                           |
----------------------------------------------|                            |
----------------------------------------------|                            |
----------------------------------------------|                         ---| x3
----------------------------------------------|                            |
------10---8-----0h5h8-0h3h7-0------8---5-----|                            |
--0-0----0---0-0-------------0--0-0---0---0-0-|                            |
  . .    .   . .                . .   .   . .                              |
                                                                           |
|---------------------------------------------------------------------|    |
|---------------------------------------------------------------------|    |
|---------------------------------------------------------------------|    |
|---------------------------------------------------------------------| ---|
|-10-10-10-10-8-8-8-8-7-7-7-7-7-7-7-7-8-8-8-8-7-7-7-7-5-5-5-5-3-3-3-3-|
|---------------------------------------------------------------------|

And then

|---------------------------------------------
|---------------------------------------------
|---------------------------------------------
|---------------------------------------------
|--0h5h8-0h3h7-0------8---5-----0h5h8-0h3h7-0-
|--------------0--0-0---0---0-0-------------0-
                  . .   .   . .

----------------------------------------------|
----------------------------------------------|
----------------------------------------------|
----------------------------------------------|
------10---8-----0h5h8-0h3h7-0------8---5-----|
--0-0----0---0-0-------------0--0-0---0---0-0-|
  . .    .   . .                . .   .   . .

|-------------------------------------------------------------------|
|-------------------------------------------------------------------|
|-------------------------7--------------------7--------------------|
|--10-8-7-----8-7-----------10-8-7--10-8-7-------10-8-7--10-8-7-----|
|---------10------10-8---------------------10-------------------10--|
|-------------------------------------------------------------------|


|-----------------------------------------------------------------------------|
|-----------------------------------------------------------------------------|
|-------------------------------------------------------------0h10h12---------| --|
|------7-----------7---5----------------------------------------------0h10h12-|   |
|-0-0------8---5-----------8---7h8-------10---8---7---10---8------------------|   |
|-0-0----0---0---0---0---0---0------0-0-----0---0---0----0--------------------|   |
  . .    .   .   .   .   .   .      . .     .   .   .    .                        |
                                                                          --------|
|-------------------------------------------------------------            |
|-------------------------------------------------------------            |
|-------------------------------------------------------------            |
|------7-----------7---5--------------------------------------            |
|-0-0------8---5-----------8---7h8-------10---8---7---10---8--         ---|
|-0-0----0---0---0---0---0---0------0-0-----0---0---0----0----            |
  . .    .   .   .   .   .   .      . .     .   .   .    .                | This
                                                                          | section
                                                                          | x2
This part all palm muted                                                  |
----------------------------|                                             |
----------------------------|                                             |
----------------------------|                                             |
-12-12p8-12-12p8-10p7-10p7--|                                    ---------|
----------------------------|
----------------------------|



|-----------------------------------------------------------------------------|
|-----------------------------------------------------------------------------|
|-------------------------------------------------------------0h10h12---------|
|------7-----------7---5----------------------------------------------0h10h12-|
|-0-0------8---5-----------8---7h8-------10---8---7---10---8------------------|
|-0-0----0---0---0---0---0---0------0-0-----0---0---0----0--------------------|
  . .    .   .   .   .   .   .      . .     .   .   .    .

|-------------------------------------------------------------
|-------------------------------------------------------------
|-------------------------------------------------------------
|------7-----------7---5--------------------------------------
|-0-0------8---5-----------8---7h8-------10---8---7---10---8--
|-0-0----0---0---0---0---0---0------0-0-----0---0---0----0----
  . .    .   .   .   .   .   .      . .     .   .   .    .

-----------------------------------------------------------------|
-----------------------------------------------------------------|
---------0h10h12---------0h10h12---------0h10h12---------0h10h12-|
-0h10h12---------0h10h12---------0h10h12---------0h10h12---------|
-----------------------------------------------------------------|
-----------------------------------------------------------------|


|-------------------------------------------------------------------|
|-------------------------------------------------------------------|
|-------------------------------------------------------------------|
|--8p0---------------8p0-------8p0-10p0-8p0-7p0--8p0----------------|
|------0-0-0-000-0-0-----0-0-0-----------------------0-0-0-0-0-0-0--|
|------0-0-0-000-0-0-----0-0-0-----------------------0-0-0-0-0-0-0--|
       . . . ... . .     . . .                       . . .   . .



LIFELESS!!!!  Brutalll

|------------------------------------------------|
|------------------------------------------------|
|------------------------------------------------|
|--8p0---------------8p0-------8p0-10p0-8p0-7p0--| x3
|------0-0-0-000-0-0-----0-0-0-------------------|
|------0-0-0-000-0-0-----0-0-0-------------------|
       . . . ... . .     . . .

|---------------------------------------------|
|---------------------------------------------|
|---------------------------------------------|
|--8p0---------------8p0-------8p0-10p0-8p0---|
|------0-0-0-000-0-0-----0-0-0----------------|
|------0-0-0-000-0-0-----0-0-0----------------|
       . . . ... . .     . . .

|-------------------------------------------|
|-------------------------------------------|
|-------------------------------------------|
|--8p0---------8p0-------7-7-8-8-10-10-8-8--| x3
|------0-0-0-0-----0-0-0--------------------|
|------0-0-0-0-----0-0-0--------------------|
       . . .       . . .



|---------------------------------------|
|---------------------------------------|
|---------------------------------------|
|--8p0------------8p0-------------------|
|------0-0-0-0--------0-0-0--pickslide--|
|------0-0-0-0--------0-0-0--pickslide--|
       . . .          . . .

Drum Fill

|---------------------------------------------
|---------------------------------------------
|---------------------------------------------
|---------------------------------------------
|--0h5h8-0h3h7-0------8---5-----0h5h8-0h3h7-0-
|--------------0--0-0---0---0-0-------------0-
                  . .   .   . .

---------------------------------------------|
---------------------------------------------|
---------------------------------------------|
---------------------------------------------|
-----10---8-----0h5h8-0h3h7-0------8---5-----|
-0-0----0---0-0-------------0--0-0---0---0-0-|
 . .    .   . .                . .   .   . .

|---------------------------------------------------------------------|
|---------------------------------------------------------------------|
|---------------------------------------------------------------------|
|---------------------------------------------------------------------|
|-10-10-10-10-8-8-8-8-7-7-7-7-7-7-7-7-8-8-8-8-7-7-7-7-5-5-5-5-3-3-3-3-|
|---------------------------------------------------------------------|

|---------------------------------------------
|---------------------------------------------
|---------------------------------------------
|---------------------------------------------
|--0h5h8-0h3h7-0------8---5-----0h5h8-0h3h7-0-
|--------------0--0-0---0---0-0-------------0-
                  . .   .   . .

---------------------------------------------|
---------------------------------------------|
---------------------------------------------|
---------------------------------------------|
-----10---8-----0h5h8-0h3h7-0------8---5-----|
-0-0----0---0-0-------------0--0-0---0---0-0-|
 . .    .   . .                . .   .   . .

|-------------------------------------------------------------------|
|-------------------------------------------------------------------|
|-------------------------7--------------------7--------------------|
|--10-8-7-----8-7-----------10-8-7--10-8-7-------10-8-7--10-8-7-----|
|---------10------10-8---------------------10-------------------10--|
|-------------------------------------------------------------------|



|----------------------------------------------|
|----------------------------------------------|
|----------------------------------------------|
|----------------------------------------------| x3
|--00000--00000--000000000000--00000--000-000--|
|--00000--00000--000000000000--00000--000-000--|
   .....  .....  ............  .....  ... ...

|---------------------------------------|
|-----------------------------------3*--| Whammy the harmonic
|---------------------------------------|
|---------------------------------------|
|--00000--00000--000000000000--0000-----|
|--00000--00000--000000000000--0000-----|
   .....  .....  ............  ....

Now a bit slower

|-------------------------------------|-------|
|-------------------------------------|-------|
|-------------------------------------|-------|
|-------------------------------------|-------|
|--00000--00000------00000--00000--x2-|--16\--|
|--00000--00000------00000--00000-----|--16\--|
   .....  .....      .....  .....



|--------------------------------|
|--------------------------------|
|--------------------------------|
|--------------------------------|
|--00000--00000--0000-16\-00000--|
|--00000--00000--0000-16\-00000--|
   .....  .....  ....     .....

Legend:
. - palm mute
\ - slide down
/ - slide up
h - hammer on
p - pull off


That's it. Comment & rate :]

Tap to rate this tab
# A B C D E F G H I J K L M N O P Q R S T U V W X Y Z