Song name
# A B C D E F G H I J K L M N O P Q R S T U V W X Y Z

Parkway Drive - Youre Over tab

TUNING: Drop B
LEGEND: * = palm mute
        h = hammer on
        p = pull off

There are no other good tabs for this song so this is the best I could do.


RIFF 1
|----------------------------------|----------------------------------|
|----------------------------------|----------------------------------|
|----------------------------------|----------------------------------|
|------6-----5---5-----5---6---8p6-|------5-----5---5-----5---6---8p6-|
|--3-3---3-3---3---6-6---6---6-----|--3-3---3-3---3---6-6---6---6-----|
|--3-3---3-3---3---6-6-------------|--3-3---3-3---3---6-6-------------|
   * *   * *   *   * *                * *   * *   *   * *
|----------------------------------|------------------------------------|
|----------------------------------|------------------------------------|
|----------------------------------|------------------------------------|
|------6-----5---5-----5---6---8p6-|------5-----5---5-----5---6h8p6-5h6-|
|--3-3---3-3---3---6-6---6---6-----|--3-3---3-3---3---6-6---6-----------|
|--3-3---3-3---3---6-6-------------|--3-3---3-3---3---6-6---------------|
   * *   * *   *   * *                * *   * *   *   * *

RIFF 2
|----------------------------------|----------------------------------|
|----------------------------------|----------------------------------|
|----------------------------------|----------------------------------|
|------6-----6---6-----5---1-1-5---|------6-----6---6-----8---1-1-5---|
|--3-3---3-3---3---6-6---6-1-1---6-|--3-3---3-3---3---6-6---6-1-1---6-|
|--3-3---3-3---3---6-6-----1-1-----|--3-3---3-3---3---6-6-----1-1-----|
   * *   * *   *   * *     * *        * *   * *   *   * *     * *

RIFF 3
|----------------------|
|----------------------|
|----------------------|
|--0---7-5-3-2-5-2-0-5-|
|--0---8-7-5-3-7-3-0-7-|
|--0---------------0---| x11
   *     * * *   * *
|------------------|
|------------------|
|------------------|
|--0---7-5-3-2-5-2-|
|--0---8-7-5-3-7-3-|
|--0---------------|
   *     * * *   *

RIFF 4
|----------------------------------------------|
|----------------------------------------------|
|--2-2-2-3-------------------------------------|
|--3-3-3-5---------------2-2-2-3---------------|
|----------0-000-000-000-3-3-3-5-0-000-000-000-|
|----------0-000-000-000---------0-000-000-000-|
           * *** *** ***         * *** *** ***
|---------------------------------------------------|
|---------------------------------------------------|
|--2-2-2-3--------------------------2-------3-------|
|--3-3-3-5---------------2-2-2-3----2-3-----3-5-----|
|----------0-000-000-000-3-3-3-5-00---3--0----5--00-|
|----------0-000-000-000---------00------0-------00-|
           * *** *** ***         **      *       **
x2

RIFF 5
|--------------------------------------------------------------|
|--------------------------------------------------------------|
|--2-2-2-3-----------------------------------------------------|
|--3-3-3-5-----------------------2-2-2-3-----------------------|
|----------0-000-000-000-000-000-3-3-3-5-0-000-000-000-000-000-|
|----------0-000-000-000-000-000---------0-000-000-000-000-000-|
           * *** *** *** *** ***         * *** *** *** *** ***
|--------------------------------|-----------------------------------------|
|--------------------------------|-----------8-6-5-6-5-3---8-6-5-3-5-3-1-0-|
|--2-2-2-3-----------------------|--2-2-2-3--------------5-----------------|
|--3-3-3-5-----------------------|--3-3-3-5--------------------------------|
|----------0-000-000-000-000-000-|-----------------------------------------|
|----------0-000-000-000-000-000-|-----------------------------------------|
           * *** *** *** *** ***

RIFF 6
|----------------|  |-----------|
|----------------|  |-----------|
|----------------|  |--5-10-8-7-|
|----------------|  |-----------|
|--00--0-000-000-|  |--3-8--6-5-|
|--00--0-000-000-|x3|-----------|
   **  * *** ***
x6

RIFF 7
|----------------------------------------------|
|----------------------------------------------|
|--2-2-2-3-------------------------------------|
|--3-3-3-5---------------2-2-2-3---------------|
|----------0-000-000-000-3-3-3-5-0-000-000-000-|
|----------0-000-000-000---------0-000-000-000-|
           * *** *** ***         * *** *** ***
|---------------------------------------------------|
|---------------------------------------------------|
|--2-2-2-3--------------------------2-------3-------|
|--3-3-3-5---------------2-2-2-3----2-3-----3-5-----|
|----------0-000-000-000-3-3-3-5-00---3--0----5--00-|
|----------0-000-000-000---------00------0-------00-|
           * *** *** ***         **      *       **
|----------------------------------------------|
|----------------------------------------------|
|--2-2-2-3-------------------------------------|
|--3-3-3-5---------------2-2-2-3---------------|
|----------0-000-000-000-3-3-3-5-0-000-000-000-|
|----------0-000-000-000---------0-000-000-000-|
           * *** *** ***         * *** *** ***
|-----------------------------------------------|
|-----------------------------------------------|
|--2-2-2-3--------------------------2-------3---|
|--3-3-3-5---------------2-2-2-3----2-3-----3-5-|
|----------0-000-000-000-3-3-3-5-00---3--0----5-|
|----------0-000-000-000---------00------0------|
           * *** *** ***         **      *
RIFF 8
|----------------|  |-----------|
|----------------|  |-----------|
|----------------|  |--5-10-8-7-|
|----------------|  |-----------|
|--00--0-000-000-|  |--3-8--6-5-|
|--00--0-000-000-|x3|-----------|
   **  * *** ***
x2

guitar 1
|--------------------|  |----------------|
|--------------------|  |----------------|
|--------------------|  |--5-7-----------|
|--------------------|  |------8---7-8-3-|
|--00--0-5h6p5-------|  |----------------|
|--00--0-------7h8p7-|x3|----------------|
   **  *
x2
guitar 2
|--------------------|  |----------------|
|--------------------|  |----------------|
|--------------------|  |----------------|
|--------------------|  |--4-3-1---3-1-0-|
|--00--0-5h6p5-------|  |--4-3-1---3-1-0-|
|--00--0-------7h8p7-|x3|--4-3-1---3-1-0-|
   **  *                   * * *   * * *
x2

guitar 1
|--------------------|  |------------------|
|--------------------|  |------------------|
|--------------------|  |------------------|
|--------------------|  |--10-8-7---7-8-10-|
|--00--0-5h6p5-------|  |------------------|
|--00--0-------7h8p7-|x3|------------------|
   **  *                    * *     * *
x2
guitar 2
|--------------------|  |----------------|
|--------------------|  |----------------|
|--------------------|  |----------------|
|--------------------|  |--4-3-1---3-1-0-|
|--00--0-5h6p5-------|  |--4-3-1---3-1-0-|
|--00--0-------7h8p7-|x3|--4-3-1---3-1-0-|
   **  *                   * * *   * * *
x2
Tap to rate this tab
 
# A B C D E F G H I J K L M N O P Q R S T U V W X Y Z