Song name
# A B C D E F G H I J K L M N O P Q R S T U V W X Y Z

Parkway Drive - Smoke Em If You Got Em tab

     S S S S S S S S  S  S  S  S S S S S  
D||--------------------------------------|
A||--------------------------------------|
F||--9-9-9-9-7-7-7-7---------------------|
C||------------------10-10-10-10-9-9-9-9-|
G||--------------------------------------|
C||--------------------------------------|


   S  S  S  S S S S S S S S S  S  S  S  S  
------------------------------------------|
------------------------------------------|
------------------------------------------|
--10-10-10-10-9-9-9-9-7-7-7-7-------------|
------------------------------10-10-10-10-|
------------------------------------------|


  S S S S  S  S  S  S S S S S  S  S  S  S  
------------------------------------------|
------------------------------------------|
------------------------------------------|
----------------------7-7-7-7-------------|
--9-9-9-9-10-10-10-10---------10-10-10-10-|
------------------------------------------|


  S S S S S S S S  S  S  S  S S S S S    S S S S S S S S  S  S  S  S S S S S  
--------------------------------------|--------------------------------------|
--------------------------------------|--------------------------------------|
--------------------------------------|--9-9-9-9-7-7-7-7---------------------|
--9-9-9-9-7-7-7-7---------------------|------------------10-10-10-10-9-9-9-9-|
------------------10-10-10-10-9-9-9-9-|--------------------------------------|
--------------------------------------|--------------------------------------|


   S  S  S  S S S S S S S S S  S  S  S  S  
------------------------------------------|
------------------------------------------|
------------------------------------------|
--10-10-10-10-9-9-9-9-7-7-7-7-------------|
------------------------------10-10-10-10-|
------------------------------------------|


  S S S S  S  S  S  S S S S S  S  S  S  S  
------------------------------------------|
------------------------------------------|
------------------------------------------|
----------------------7-7-7-7-------------|
--9-9-9-9-10-10-10-10---------10-10-10-10-|
------------------------------------------|


  S S S S S S S S  S  S  S  S S S S S      S S S S S S S S  S  S  S  S S S S S  
--------------------------------------||---------------------------------------|
--------------------------------------||---------------------------------------|
--------------------------------------||*--9-9-9-9-7-7-7-7---------------------|
--9-9-9-9-7-7-7-7---------------------||*------------------10-10-10-10-9-9-9-9-|
------------------10-10-10-10-9-9-9-9-||---------------------------------------|
--------------------------------------||---------------------------------------|


   S  S  S  S S S S S S S S S  S  S  S  S  
------------------------------------------|
------------------------------------------|
------------------------------------------|
--10-10-10-10-9-9-9-9-7-7-7-7-------------|
------------------------------10-10-10-10-|
------------------------------------------|


  S S S S  S  S  S  S S S S S  S  S  S  S  
------------------------------------------|
------------------------------------------|
------------------------------------------|
----------------------7-7-7-7-------------|
--9-9-9-9-10-10-10-10---------10-10-10-10-|
------------------------------------------|


  S S S S S S S S  S  S  S  S S S S S  3x  S S S S S S S S  S  S  S  S S S S S  
---------------------------------------||--------------------------------------|
---------------------------------------||--------------------------------------|
--------------------------------------*||--9-9-9-9-7-7-7-7---------------------|
--9-9-9-9-7-7-7-7---------------------*||------------------10-10-10-10-9-9-9-9-|
------------------10-10-10-10-9-9-9-9--||--------------------------------------|
---------------------------------------||--------------------------------------|


   S  S  S  S S S S S S S S S  S  S  S  S  
------------------------------------------|
------------------------------------------|
------------------------------------------|
--10-10-10-10-9-9-9-9-7-7-7-7-------------|
------------------------------10-10-10-10-|
------------------------------------------|


  S S S S  S  S  S  S S S S S  S  S  S  S  
------------------------------------------|
------------------------------------------|
------------------------------------------|
----------------------7-7-7-7-------------|
--9-9-9-9-10-10-10-10---------10-10-10-10-|
------------------------------------------|


  S S S S S S S S  S  S  S  S S S S S    W                    W                 
--------------------------------------|-------------------|--------------------|
--------------------------------------|-------------------|--------------------|
--------------------------------------|-------------------|--------------------|
--9-9-9-9-7-7-7-7---------------------|--0----------------|---L----------------|
------------------10-10-10-10-9-9-9-9-|--0----------------|---L----------------|
--------------------------------------|--0----------------|---L----------------|


    PM PM          PM PM       PM PM           PM PM     
    E  E  E  E  E  E  E  E     E  E   E  E  E  E  E  E   
|---------------------------|---------------------------|
|---------------------------|---------------------------|
|*--------------------------|---------------------------|
|*--------------------------|---------------------------|
|---------8--7--5-----------|--------10--7--8-----------|
|---0--0-----------0--0--0--|--0--0------------0--0--0--|


  PM PM          PM PM       PM    PM PM                  
  E  E  E  E  E  E  E  E     E  E  E  E  S S E  S S E     
--------------------------|-----------------------------||
--------------------------|-----------------------------||
--------------------------|----------------------------*||
--------------------------|----------------------------*||
--------8--7--5--------3--|-----5--------7-8-7--3-5-3---||
--0--0-----------0--0-----|--0-----0--0-----------------||


  PM PM          PM PM       PM    PM PM                
  E  E  E  E  E  E  E  E     E  E  E  E  S S E  S S E   
--------------------------|----------------------------|
--------------------------|----------------------------|
--------------------------|----------------------------|
--------------------------|----------------------------|
--------8--7--5--------3--|-----5--------7-8-7--3-5-3--|
--0--0-----------0--0-----|--0-----0--0----------------|


  PM             PM PM       PM PM           PM PM     
  E  E  E  E  E  E  E  E     E  E   E  E  E  E  E  E   
--------------------------|---------------------------|
--------------------------|---------------------------|
--------------------------|---------------------------|
--------------------------|---------------------------|
--------8--7--5-----------|--------10--7--8-----------|
--0--0-----------0--0--0--|--0--0------------0--0--0--|


  PM PM          PM PM       PM    PM PM                
  E  E  E  E  E  E  E  E     E  E  E  E  S S E  S S E   
--------------------------|----------------------------|
--------------------------|----------------------------|
--------------------------|----------------------------|
--------------------------|----------------------------|
--------8--7--5--------3--|-----5--------7-8-7--3-5-3--|
--0--0-----------0--0-----|--0-----0--0----------------|


    PM             PM PM       PM PM           PM PM     
    E  E  E  E  E  E  E  E     E  E   E  E  E  E  E  E   
|---------------------------|---------------------------|
|---------------------------|---------------------------|
|*--------------------------|---------------------------|
|*--------------------------|---------------------------|
|---------8--7--5-----------|--------10--7--8-----------|
|---0--0-----------0--0--0--|--0--0------------0--0--0--|


  PM PM          PM PM       PM    PM PM                  
  E  E  E  E  E  E  E  E     E  E  E  E  S S E  S S E     
--------------------------|-----------------------------||
--------------------------|-----------------------------||
--------------------------|----------------------------*||
--------------------------|----------------------------*||
--------8--7--5--------3--|-----5--------7-8-7--3-5-3---||
--0--0-----------0--0-----|--0-----0--0-----------------||


  PM PM          PM PM       PM    PM PM                
  E  E  E  E  E  E  E  E     E  E  E  E  S S E  S S E   
--------------------------|----------------------------|
--------------------------|----------------------------|
--------------------------|----------------------------|
--------------------------|----------------------------|
--------8--7--5--------3--|-----5--------7-8-7--3-5-3--|
--0--0-----------0--0-----|--0-----0--0----------------|


  PM PM PM PM PM PM PM PM PM PM PM PM PM    PM PM PM PM                       
  S  S  E  S  S  E  S  S  E  S  S  S  S     E  E  E  E  H                     
-----------------------------------------|-----------------------|-----|-----|
-----------------------------------------|-----------------------|-----|-----|
-----------------------------------------|-----------------------|-----|-----|
-----------------------------------------|-----------------------|-----|-----|
--0--0--0--0--0--0--0--0--0--0--0--0--0--|--0--0--0--0-----------|-----|-----|
--0--0--0--0--0--0--0--0--0--0--0--0--0--|--0--0--0--0-----------|-----|-----|


  PM PM PM PM PM PM PM PM PM PM PM PM PM    PM PM PM PM           
  S  S  E  S  S  E  S  S  E  S  S  S  S     E  E  E  E  H         
-----------------------------------------|-----------------------|
-----------------------------------------|-----------------------|
-----------------------------------------|-----------------------|
-----------------------------------------|-----------------------|
--0--0--0--0--0--0--0--0--0--0--0--0--0--|--0--0--0--0-----------|
--0--0--0--0--0--0--0--0--0--0--0--0--0--|--0--0--0--0-----------|


  PM PM PM PM PM PM PM PM PM PM PM PM PM    PM PM PM PM           
  S  S  E  S  S  E  S  S  E  S  S  S  S     E  E  E  E  H         
-----------------------------------------|-----------------------|
-----------------------------------------|-----------------------|
-----------------------------------------|-----------------------|
-----------------------------------------|-----------------------|
--0--0--0--0--0--0--0--0--0--0--0--0--0--|--0--0--0--0-----------|
--0--0--0--0--0--0--0--0--0--0--0--0--0--|--0--0--0--0-----------|


  PM PM PM PM PM PM PM PM PM PM PM PM PM    PM PM PM PM           
  S  S  E  S  S  E  S  S  E  S  S  S  S     E  E  E  E  H         
-----------------------------------------|-----------------------|
-----------------------------------------|-----------------------|
-----------------------------------------|-----------------------|
-----------------------------------------|-----------------------|
--0--0--0--0--0--0--0--0--0--0--0--0--0--|--0--0--0--0-----------|
--0--0--0--0--0--0--0--0--0--0--0--0--0--|--0--0--0--0-----------|


  PM PM PM PM PM PM PM PM PM PM PM PM PM    PM PM PM PM           
  S  S  E  S  S  E  S  S  E  S  S  S  S     E  E  E  E  H         
-----------------------------------------|-----------------------|
-----------------------------------------|-----------------------|
-----------------------------------------|-----------------------|
-----------------------------------------|-----------------------|
--0--0--0--0--0--0--0--0--0--0--0--0--0--|--0--0--0--0-----------|
--0--0--0--0--0--0--0--0--0--0--0--0--0--|--0--0--0--0-----------|


    PM             PM PM       PM PM           PM PM     
    E  E  E  E  E  E  E  E     E  E   E  E  E  E  E  E   
|---------------------------|---------------------------|
|---------------------------|---------------------------|
|*--------------------------|---------------------------|
|*--------------------------|---------------------------|
|---------8--7--5-----------|--------10--7--8-----------|
|---0--0-----------0--0--0--|--0--0------------0--0--0--|


  PM PM          PM PM       PM    PM PM                  
  E  E  E  E  E  E  E  E     E  E  E  E  S S E  S S E     
--------------------------|-----------------------------||
--------------------------|-----------------------------||
--------------------------|----------------------------*||
--------------------------|----------------------------*||
--------8--7--5--------3--|-----5--------7-8-7--3-5-3---||
--0--0-----------0--0-----|--0-----0--0-----------------||


  PM PM          PM PM       PM    PM PM                
  E  E  E  E  E  E  E  E     E  E  E  E  S S E  S S E   
--------------------------|----------------------------|
--------------------------|----------------------------|
--------------------------|----------------------------|
--------------------------|----------------------------|
--------8--7--5--------3--|-----5--------7-8-7--3-5-3--|
--0--0-----------0--0-----|--0-----0--0----------------|


    PM             PM PM       PM PM           PM PM     
    E  E  E  E  E  E  E  E     E  E   E  E  E  E  E  E   
|---------------------------|---------------------------|
|---------------------------|---------------------------|
|*--------------------------|---------------------------|
|*--------7--5--3-----------|--------10--5--7-----------|
|---------------------------|---------------------------|
|---0--0-----------0--0--0--|--0--0------------0--0--0--|


  PM PM          PM PM       PM    PM PM                     
  E  E  E  E  E  E  E  E     E  E  E  E   S  S  E  S S E     
--------------------------|--------------------------------||
--------------------------|--------------------------------||
--------------------------|-------------------------------*||
--------7--5--3--------2--|-----3-------------------------*||
--------------------------|--------------10-12-10--7-8-7---||
--0--0-----------0--0-----|--0-----0--0--------------------||


  PM PM          PM PM       PM    PM PM                
  E  E  E  E  E  E  E  E     E  E  E  E  S S E  S S E   
--------------------------|----------------------------|
--------------------------|----------------------------|
--------------------------|----------------------------|
--------7--5--3--------2--|-----3--------5-7-5--2-3-2--|
--------------------------|----------------------------|
--0--0-----------0--0-----|--0-----0--0----------------|


  PM PM          PM             PM          PM        
  E  E  E  E  E  E  E  E     E  E  E  E  E  E  E  E   
--------------------------|--------------------------|
--------------------------|--------------------------|
--------------------------|--------------------------|
--------------------5-----|--------7--5--------------|
--------8--7--5--------8--|--7-----------8-----7--8--|
--0--0-----------0--------|-----0-----------0--------|


  PM PM          PM                                               
                             |--3--|  |--3--|  |--3--|  |--3--|   
  E  E  E  E  E  E  E  E     E  E  E  E  E  E  E  E  E  E  E  E   
--------------------------|--------------------------------------|
--------------------------|--------------------------------------|
--------------------------|--5--7--5-----------------------------|
--------------------------|-----------5--7--5--------------------|
--------5--7--8-----8--7--|--------------------5--7--5-----------|
--0--0-----------0--------|-----------------------------5--8--5--|


  PM PM          PM             PM          PM        
  E  E  E  E  E  E  E  E     E  E  E  E  E  E  E  E   
--------------------------|--------------------------|
--------------------------|--------------------------|
--------------------------|--------------------------|
--------------------5-----|--------7--5--------------|
--------8--7--5--------8--|--7-----------8-----7--8--|
--0--0-----------0--------|-----0-----------0--------|


  PM PM          PM                                               
                             |--3--|  |--3--|  |--3--|  |--3--|   
  E  E  E  E  E  E  E  E     E  E  E  E  E  E  E  E  E  E  E  E   
--------------------------|--------------------------------------|
--------------------------|--------------------------------------|
--------------------------|--5--7--5-----------------------------|
--------------------------|-----------5--7--5--------------------|
--------5--7--8-----8--7--|--------------------5--7--5-----------|
--0--0-----------0--------|-----------------------------5--8--5--|


                                         PM                 
  |--3--|  |--3--|  |--3--|  |--3--|                        
  E  E  E  E  E  E  E  E  E  E  E  E     Q    H.            
--------------------------------------|--------------------|
--------------------------------------|--------------------|
--5--7--5-----------------------------|--------------------|
-----------5--7--5--------------------|--------------------|
--------------------5--7--5-----------|--0-----------------|
-----------------------------5--8--5--|--0-----------------|


                          PM      PM PM PM              PM    PM PM PM PM       
  H.             Q        Q    E  E  S  E  S Q       E  E  E  E  S  S  E  Q     
-----------------------|--------------------------|----------------------------|
-----------------------|--------------------------|----------------------------|
---------------<>5b----|--------------------------|----------------------------|
-----------------------|--------------------------|----------------------------|
-----------------------|--0-------0--0--0---------|-----0-----0--0--0--0-------|
-----------------------|--0-------0--0--0---------|-----0-----0--0--0--0-------|


  PM      PM PM PM              PM    PM PM PM PM           
  Q    E  E  S  E  S Q       E  E  E  E  S  S  E     Q      
--------------------------|--------------------------------|
--------------------------|--------------------------------|
--------------------------|-----------------------<>10b----|
--------------------------|--------------------------------|
--0-------0--0--0---------|-----0-----0--0--0--0-----------|
--0-------0--0--0---------|-----0-----0--0--0--0-----------|


  PM      PM PM PM              PM    PM PM PM PM       
  Q    E  E  S  E  S Q       E  E  E  E  S  S  E  Q     
--------------------------|----------------------------|
--------------------------|----------------------------|
--------------------------|----------------------------|
--------------------------|----------------------------|
--0-------0--0--0---------|-----0-----0--0--0--0-------|
--0-------0--0--0---------|-----0-----0--0--0--0-------|


  PM      PM PM PM              PM    PM PM PM PM                               
  Q    E  E  S  E  S Q       E  E  E  E  S  S  E   Q        H.           E  E   
--------------------------|------------------------------|---------------------|
--------------------------|------------------------------|---------------------|
--------------------------|------------------------------|---------------------|
--------------------------|------------------------------|--8------------L--7--|
--0-------0--0--0---------|-----0-----0--0--0--0---------|--5------------L--5--|
--0-------0--0--0---------|-----0-----0--0--0--0--12\----|--5------------L--5--|


     PM PM PM                                          PM PM PM    PM        
  E  E  E  E  S S E  E  E     H.           E  E     E  E  E  E  E  E  E  E   
---------------------------|---------------------|--------------------------|
---------------------------|---------------------|--------------------------|
--------------5-7-5--------|---------------------|--------------5-----------|
--L--5--7--8---------8--7--|--7------------L--5--|--L--3--5--7-----7--5--3--|
--L------------------------|--3------------L--3--|--L-----------------------|
--L------------------------|--3------------L--3--|--L-----------------------|


                           PM PM PM                                     
  H.           E  E     E  E  E  E  S S E  E  E     H.           E  E   
---------------------|---------------------------|---------------------|
---------------------|---------------------------|---------------------|
---------------------|--------------5-7-5--------|---------------------|
--8------------L--7--|--L--5--7--8---------8--7--|--7------------L--5--|
--5------------L--5--|--L------------------------|--3------------L--3--|
--5------------L--5--|--L------------------------|--3------------L--3--|


     PM PM PM    PM                                                  
  E  E  E  E  E  E  E  E     H.           E  E     W                 
--------------------------|---------------------|-------------------|
--------------------------|---------------------|-------------------|
--------------5-----------|---------------------|-------------------|
--L--3--5--7-----7--5--3--|--8------------L--7--|--L----------------|
--L-----------------------|--5------------L--5--|--L----------------|
--L-----------------------|--5------------L--5--|--L----------------|


  H.           E  E     W                   H.           E  E   
---------------------|-------------------|---------------------|
---------------------|-------------------|---------------------|
---------------------|-------------------|---------------------|
--7------------L--5--|--L----------------|--8------------L--7--|
--3------------L--3--|--L----------------|--5------------L--5--|
--3------------L--3--|--L----------------|--5------------L--5--|


  W                   H.           E  E     W                 
-------------------|---------------------|-------------------|
-------------------|---------------------|-------------------|
-------------------|---------------------|-------------------|
--L----------------|--7------------L--5--|--L----------------|
--L----------------|--3------------L--3--|--L----------------|
--L----------------|--3------------L--3--|--L----------------|


   T    T    T    T    T    T    T    T    
   S S  S S  S S  S S  S S  S S  S S  S S  
------------------------------------------|
------------------------------------------|
--15-7-15-7-15-7-15-7-15-7-15-7-15-7-15-7-|
------------------------------------------|
------------------------------------------|
------------------------------------------|


   T    T    T    T    T    T    T    T    
   S S  S S  S S  S S  S S  S S  S S  S S  
------------------------------------------|
------------------------------------------|
--14-7-14-7-14-7-14-7-14-7-14-7-14-7-14-7-|
------------------------------------------|
------------------------------------------|
------------------------------------------|


   T     T     T     T     T     T     T     T     
   S  S  S  S  S  S  S  S  S  S  S  S  S  S  S  S  
--------------------------------------------------|
--------------------------------------------------|
--14-10-14-10-14-10-14-10-14-10-14-10-14-10-14-10-|
--------------------------------------------------|
--------------------------------------------------|
--------------------------------------------------|


   T    T    T    T    T    T    T    T    
   S S  S S  S S  S S  S S  S S  S S  S S  
------------------------------------------|
------------------------------------------|
--12-9-12-9-12-9-12-9-12-9-12-9-12-9-12-9-|
------------------------------------------|
------------------------------------------|
------------------------------------------|


   T    T    T    T    T    T    T    T    
   S S  S S  S S  S S  S S  S S  S S  S S  
------------------------------------------|
------------------------------------------|
--15-7-15-7-15-7-15-7-15-7-15-7-15-7-15-7-|
------------------------------------------|
------------------------------------------|
------------------------------------------|


   T    T    T    T    T    T    T    T    
   S S  S S  S S  S S  S S  S S  S S  S S  
------------------------------------------|
------------------------------------------|
--14-7-14-7-14-7-14-7-14-7-14-7-14-7-14-7-|
------------------------------------------|
------------------------------------------|
------------------------------------------|


   T     T     T     T     T     T     T     T     
   S  S  S  S  S  S  S  S  S  S  S  S  S  S  S  S  
--------------------------------------------------|
--------------------------------------------------|
--14-10-14-10-14-10-14-10-14-10-14-10-14-10-14-10-|
--------------------------------------------------|
--------------------------------------------------|
--------------------------------------------------|


   T    T    T    T    T    T    T    T    
   S S  S S  S S  S S  S S  S S  S S  S S  
------------------------------------------|
------------------------------------------|
--12-9-12-9-12-9-12-9-12-9-12-9-12-9-12-9-|
------------------------------------------|
------------------------------------------|
------------------------------------------|


     T    T    T    T    T    T    T    T    
     S S  S S  S S  S S  S S  S S  S S  S S  
|-------------------------------------------|
|-------------------------------------------|
|*--15-7-15-7-15-7-15-7-15-7-15-7-15-7-15-7-|
|*------------------------------------------|
|-------------------------------------------|
|-------------------------------------------|


   T    T    T    T    T    T    T    T    
   S S  S S  S S  S S  S S  S S  S S  S S  
------------------------------------------|
------------------------------------------|
--14-7-14-7-14-7-14-7-14-7-14-7-14-7-14-7-|
------------------------------------------|
------------------------------------------|
------------------------------------------|


   T     T     T     T     T     T     T     T     
   S  S  S  S  S  S  S  S  S  S  S  S  S  S  S  S  
--------------------------------------------------|
--------------------------------------------------|
--14-10-14-10-14-10-14-10-14-10-14-10-14-10-14-10-|
--------------------------------------------------|
--------------------------------------------------|
--------------------------------------------------|


   T    T    T    T    T    T    T    T      
   S S  S S  S S  S S  S S  S S  S S  S S    
-------------------------------------------||
-------------------------------------------||
--12-9-12-9-12-9-12-9-12-9-12-9-12-9-12-9-*||
------------------------------------------*||
-------------------------------------------||
-------------------------------------------||


   T    T    T    T    T    T    T    T    
   S S  S S  S S  S S  S S  S S  S S  S S  
------------------------------------------|
------------------------------------------|
--12-9-12-9-12-9-12-9-12-9-12-9-12-9-12-9-|
------------------------------------------|
------------------------------------------|
------------------------------------------|


   T    T    T    T    T    T    T    T    
   S S  S S  S S  S S  S S  S S  S S  S S  
------------------------------------------|
------------------------------------------|
--15-7-15-7-15-7-15-7-15-7-15-7-15-7-15-7-|
------------------------------------------|
------------------------------------------|
------------------------------------------|


   T    T    T    T    T    T    T    T    
   S S  S S  S S  S S  S S  S S  S S  S S  
------------------------------------------|
------------------------------------------|
--14-7-14-7-14-7-14-7-14-7-14-7-14-7-14-7-|
------------------------------------------|
------------------------------------------|
------------------------------------------|


   T     T     T     T     T     T     T     T     
   S  S  S  S  S  S  S  S  S  S  S  S  S  S  S  S  
--------------------------------------------------|
--------------------------------------------------|
--14-10-14-10-14-10-14-10-14-10-14-10-14-10-14-10-|
--------------------------------------------------|
--------------------------------------------------|
--------------------------------------------------|


   T    T    T    T    T    T    T    T    
   S S  S S  S S  S S  S S  S S  S S  S S  
------------------------------------------|
------------------------------------------|
--12-9-12-9-12-9-12-9-12-9-12-9-12-9-12-9-|
------------------------------------------|
------------------------------------------|
------------------------------------------|


   T    T    T    T    T    T    T    T    
   S S  S S  S S  S S  S S  S S  S S  S S  
------------------------------------------|
------------------------------------------|
--15-7-15-7-15-7-15-7-15-7-15-7-15-7-15-7-|
------------------------------------------|
------------------------------------------|
------------------------------------------|


   T    T    T    T    T    T    T    T    
   S S  S S  S S  S S  S S  S S  S S  S S  
------------------------------------------|
------------------------------------------|
--14-7-14-7-14-7-14-7-14-7-14-7-14-7-14-7-|
------------------------------------------|
------------------------------------------|
------------------------------------------|


   T     T     T     T     T     T     T     T     
   S  S  S  S  S  S  S  S  S  S  S  S  S  S  S  S  
--------------------------------------------------|
--------------------------------------------------|
--14-10-14-10-14-10-14-10-14-10-14-10-14-10-14-10-|
--------------------------------------------------|
--------------------------------------------------|
--------------------------------------------------|


   T    T    T    T    T    T    T    T      PM PM PM    PM PM PM PM PM     
   S S  S S  S S  S S  S S  S S  S S  S S    E  E  E  E  S  S  S  S  E  E   
------------------------------------------|--------------------------------|
------------------------------------------|--------------------------------|
--12-9-12-9-12-9-12-9-12-9-12-9-12-9-12-9-|--------------------------------|
------------------------------------------|--------------------------------|
------------------------------------------|--5--5--5-----5--5--5--5--5-----|
------------------------------------------|--5--5--5-----5--5--5--5--5-----|


  PM PM PM    PM PM PM PM PM       PM PM PM    PM PM PM PM PM     
  E  E  E  E  S  S  S  S  E  E     E  E  E  E  S  S  S  S  E  E   
--------------------------------|--------------------------------|
--------------------------------|--------------------------------|
--------------------------------|--------------------------------|
--------------------------------|--------------------------------|
--5--5--5-----5--5--5--5--5-----|--3--3--3-----3--3--3--3--3-----|
--5--5--5-----5--5--5--5--5-----|--3--3--3-----3--3--3--3--3-----|


  PM PM PM    PM PM PM PM PM       PM PM PM    PM PM PM PM PM     
  E  E  E  E  S  S  S  S  E  E     E  E  E  E  S  S  S  S  E  E   
--------------------------------|--------------------------------|
--------------------------------|--------------------------------|
--------------------------------|--------------------------------|
--------------------------------|--------------------------------|
--3--3--3-----3--3--3--3--3-----|--5--5--5-----5--5--5--5--5-----|
--3--3--3-----3--3--3--3--3-----|--5--5--5-----5--5--5--5--5-----|


  PM PM PM    PM PM PM PM PM       PM PM PM    PM PM PM PM PM     
  E  E  E  E  S  S  S  S  E  E     E  E  E  E  S  S  S  S  E  E   
--------------------------------|--------------------------------|
--------------------------------|--------------------------------|
--------------------------------|--------------------------------|
--------------------------------|--------------------------------|
--5--5--5-----5--5--5--5--5-----|--3--3--3-----3--3--3--3--3-----|
--5--5--5-----5--5--5--5--5-----|--3--3--3-----3--3--3--3--3-----|


     \1                     PM PM         PM PM       
     W                   E  S  S  Q    E  S  S  Q     
----------------------|------------------------------|
----12----------------|------------------------------|
--<>12----------------|----------------8-------------|
----------------------|------------------------------|
----------------------|--1--------0----6--------0----|
----------------------|--1--0--0--0-------0--0--0----|


     PM PM         PM PM             PM PM         PM PM       
  E  S  S  Q    E  S  S  E  E     E  S  S  Q    E  S  S  Q     
-------------------------------|------------------------------|
-------------------------------|------------------------------|
----------------8--------------|----------------8-------------|
-------------------------------|------------------------------|
--1--------0----6--------3--4--|--1--------0----6--------0----|
--1--0--0--0-------0--0--3--4--|--1--0--0--0-------0--0--0----|


     PM PM         PM PM             PM PM         PM PM       
  E  S  S  Q    E  S  S  E  E     E  S  S  Q    E  S  S  Q     
-------------------------------|------------------------------|
-------------------------------|------------------------------|
----------------8--------------|----------------8-------------|
-------------------------------|------------------------------|
--1--------0----6--------3--4--|--1--------0----6--------0----|
--1--0--0--0-------0--0--3--4--|--1--0--0--0-------0--0--0----|


     PM PM         PM PM             PM PM         PM PM       
  E  S  S  Q    E  S  S  E  E     E  S  S  Q    E  S  S  Q     
-------------------------------|------------------------------|
-------------------------------|------------------------------|
----------------8--------------|----------------8-------------|
-------------------------------|------------------------------|
--1--------0----6--------3--4--|--1--------0----6--------0----|
--1--0--0--0-------0--0--3--4--|--1--0--0--0-------0--0--0----|


  PM PM PM PM PM PM PM PM PM PM PM PM PM PM PM PM  
  S  S  S  S  S  S  S  S  S  S  S  S  S  S  S  S   
--------------------------------------------------|
--------------------------------------------------|
--------------------------------------------------|
--------------------------------------------------|
--1--1--1--1--1--1--1--1--4--4--4--4--3--3--3--3--|
--1--1--1--1--1--1--1--1--4--4--4--4--3--3--3--3--|


  PM PM PM PM PM   PM PM PM PM PM      PM PM PM PM PM   PM PM PM PM PM    
  S  S  S  S  Q    S  S  S  S  Q       S  S  S  S  Q    S  S  S  S  Q     
------------------------------------|------------------------------------|
------------------------------------|------------------------------------|
------------------------------------|------------------------------------|
------------------------------------|------------------------------------|
--1--1--0--0--0----1--1--0--0--0----|--1--1--0--0--0----1--1--0--0--0----|
--1--1--0--0--0----1--1--0--0--0----|--1--1--0--0--0----1--1--0--0--0----|


  PM PM PM PM PM   PM PM PM PM PM    
  S  S  S  S  Q    S  S  S  S  Q     
------------------------------------|
------------------------------------|
------------------------------------|
------------------------------------|
--1--1--0--0--0----1--1--0--0--0----|
--1--1--0--0--0----1--1--0--0--0----|


  PM PM PM PM PM PM PM PM PM PM PM PM PM PM PM PM  
  S  S  S  S  S  S  S  S  S  S  S  S  S  S  S  S   
--------------------------------------------------|
--------------------------------------------------|
--------------------------------------------------|
--------------------------------------------------|
--1--1--1--1--1--1--1--1--4--4--4--4--3--3--3--3--|
--1--1--1--1--1--1--1--1--4--4--4--4--3--3--3--3--|


  PM PM PM PM PM   PM PM PM PM PM      PM PM PM PM PM   PM PM PM PM PM    
  S  S  S  S  Q    S  S  S  S  Q       S  S  S  S  Q    S  S  S  S  Q     
------------------------------------|------------------------------------|
------------------------------------|------------------------------------|
------------------------------------|------------------------------------|
------------------------------------|------------------------------------|
--1--1--0--0--0----1--1--0--0--0----|--1--1--0--0--0----1--1--0--0--0----|
--1--1--0--0--0----1--1--0--0--0----|--1--1--0--0--0----1--1--0--0--0----|


  PM PM PM PM PM   PM PM PM PM PM    
  S  S  S  S  Q    S  S  S  S  Q     
------------------------------------|
------------------------------------|
------------------------------------|
------------------------------------|
--1--1--0--0--0----1--1--0--0--0----|
--1--1--0--0--0----1--1--0--0--0----|


  PM PM PM PM PM PM PM PM PM PM PM PM PM PM PM PM                          
  S  S  S  S  S  S  S  S  S  S  S  S  S  S  S  S     Q    Q    Q    Q      
--------------------------------------------------|----------------------||
--------------------------------------------------|----------------------||
--------------------------------------------------|----------------------||
--------------------------------------------------|----------------------||
--1--1--1--1--1--1--1--1--4--4--4--4--3--3--3--3--|--0---------0---------||
--1--1--1--1--1--1--1--1--4--4--4--4--3--3--3--3--|--0---------0---------||




Duration Legend
---------------
W - whole
H - half
Q - quarter
E - 8th
S - 16th
T - 32nd
X - 64th
. - note dotted
|-n-|  - n-tuplets


Tablature Legend
----------------
L - tied note
x - dead note
g - grace note
(n) - ghost note
> - accentuded note
NH - natural harmonic
AH - artificial harmonic
TH - tapped harmonic
SH - semi harmonic
PH - pitch harmonic
h - hammer on
p - pull off
b - bend
br - bendRelease
pb - preBend
pbr - preBendRelease
brb - bendReleaseBend
\n/ - tremolo bar dip
\n - tremolo bar dive
-/n - tremolo bar Release up
/n\ - tremolo bar inverted dip
/n - tremolo bar return
-\n - tremolo bar Release down
S - shift slide
s - legato slide
/ -  slide into from below or out of upwards
\ -  slide into from above or out of downwards
~ - vibrato
W - wide vibrato
tr - trill
TP - tremolo picking
T - tapping
S - slap
P - pop
< - fade in
^ - brush up
v - brush down
Tap to rate this tab
 
# A B C D E F G H I J K L M N O P Q R S T U V W X Y Z