Song name
# A B C D E F G H I J K L M N O P Q R S T U V W X Y Z

Parkway Drive - Smoke Em If You Got Em tab

Guitar one

|---------------------------------------------|
|---------------------------------------------|
|-9999-7777-----------------------------------| ---------------|
|-----------10101010-9999-10101010-9999--7777-|                |
|---------------------------------------------|                |
|---------------------------------------------|                |
                                                               |x6
                                                               |
|----------------------------------------------------------|   |
|----------------------------------------------------------|   |
|----------------------------------------------------------|   |
|----------------------7777----------9999-7777-------------| --|
|-10101010-9999-101010------10101010-----------101010-9999-|
|----------------------------------------------------------|

|----------------------------|
|----------------------------|
|----------------------------|
|-0~-------------------------|x1
|-0~-------pickslide--\\\\---|
|-0~-------pickslide--\\\\---|

|------------------------------------------------------------------|
|------------------------------------------------------------------|
|------------------------------------------------------------------|
|------------------------------------------------------------------|x4
|-----8-7-5---------10-7-8---------8-7-5-----3---5-----0h7h8-0h3h5-|
|-0-0-------0-0-0-0--------0-0-0-0-------0-0---0---0-0-------------|
  . .       . .   .        . .   .       . .   .   . .

|-------------------------|
|-------------------------|
|-------------------------|
|-------------------------|x6
|-000-000-000-000-0-0-0-0-|
|-000-000-000-000-0-0-0-0-|
  ... ... ... ... . . . .

|------------------------------------------------------------------|
|------------------------------------------------------------------|
|------------------------------------------------------------------|
|------------------------------------------------------------------|x2
|-----8-7-5---------10-7-8---------8-7-5-----3---5-----0h7h8-0h3h5-|
|-0-0-------0-0-0-0--------0-0-0-0-------0-0---0---0-0-------------|
  . .       . .   .        . .   .       . .   .   . .

|-------------------------------------------------------------------------|
|-------------------------------------------------------------------------|
|-------------------------------------------------------------------------|
|---------------------10--------------------------------------------------|x2
|-----12-10-8------------10-12---------12-10-8-----7---8-----0h8h10-0h7h8-|
|-0-0---------0-0-0-0----------0-0-0-0---------0-0---0---0-0--------------|
  . .         . .   .          . .   .         . .   .   . .

|-----------------------------------------------------------------------------|
|-----------------------------------------------------------------------------|
|----------------------------------------------------0h5h7--------------------|
|----------------------------------------------------------0h5h7--------------|x2
|-----8-7-5---10-8-7---12-10-8---5-7-----5-7-8---7-8-------------0h5h7--0h3h5-|
|-0-0-------0--------0---------0-----0-0-------0------------------------------|
  . .       .        .         .     . .       .

|-------------------------|
|-------------------------|
|-0h5h7-------------------|
|-------0h5h7-------------|x1
|-------------0h5h7-0h3h5-|
|-------------------------|

|-----------------------|
|-----------------------|
|--------------------2*-|
|-----------------------|x1
|-0--0-00--0--0-000-----|
|-0--0-00--0--0-000-----|
  .  . ..  .  . ...   

|------------------------------------------|
|------------------------------------------|
|------------------------------------------|
|------------------------------------------|x1
|-0--0-00--0--0-000--0--0-00--0--0-000-----|
|-0--0-00--0--0-000--0--0-00--0--0-000--3*-|
  .  . ..  .  . ...  .  . ..  .  . ...

|--------------------------------------------|
|--------------------------------------------|
|--------------------------------------------|
|---------------------------------------\\\--|x1
|-0--0-00--0--0-000--0--0-00--0--0-000--\\\--|
|-0--0-00--0--0-000--0--0-00--0--0-000--\\\--|
  .  . ..  .  . ...  .  . ..  .  . ...

|----------------------------------------------------|
|----------------------------------------------------|
|-----------------5h7p5----------------------3-------|
|-8~---7~---5-7-8-------8-7--7~---5~---3-5-7---7-5-3-|x2
|-5~---5~--------------------3~---3~-----------------|
|-5~---5~--------------------3~---3~-----------------|
                                       . . .   . . .

|-----------------------------------------------|
|-11-11-11-11-11-11-11--10-10-10-10-10-10-10-10-|
|-----------------------------------------------| --|
|--8--8--8--8--8--8--8---7--7--7--7--7--7--7--7-|   |
|-----------------------------------------------|   |
|-----------------------------------------------|   |
                                                    |x2
|--------------------------------------|            |
|-10-10-10-10-10-10-10-8-8-8-8-8-8-8-8-|            |
|--------------------------------------|            |
|--7--7--7--7--7--7--7-5-5-5-5-5-5-5-5-| -----------|
|--------------------------------------|
|--------------------------------------|

Tapping Section
|---------------------------------------|
|-t11p8 x8--t10p8 x8--t10p6 x8--t8p6 x8-|
|---------------------------------------|
|---------------------------------------|x6
|---------------------------------------|
|---------------------------------------|

Or instead of playing the tapping bit 6x you can just play it twice and then play this.
|-----------------------------------------------------------------|
|-----------------------------------------------------------------|
|-----------------------------------------------------------------|
|-8-----8-----8---7-----7-----7---7-----7-----7---5-----5-----5---|x4
|-----------------------------------------------------------------|
|---5-5---5-5---5---5-5---5-5---5---3-3---3-3---3---3-3---3-3---3-|
    . .   . .   .   . .   . .   .   . .   . .   .   . .   . .   .

|-----------------|
|-----------------|
|---------3-------|
|-5-3-5-7---7-5-3-|x2
|-----------------|
|-----------------|
  . . . .   . . .

|-----------------|
|-----------------|
|---------2-------|
|-3-2-3-5---5-3-2-|x2
|-----------------|
|-----------------|
  . . . .   . . .

|-----------------|
|-----------------|
|---------3-------|
|-5-3-5-7---7-5-3-|x2
|-----------------|
|-----------------|
  . . . .   . . .

|-------------------|
|-------------------|
|---------2---------|
|-3-2-3-5---5-3-----|x1
|----------------7*-|
|-------------------|
  . . . .   . .

|--------------------------------------------------------------|
|--------------------------------------------------------------|
|--------7-------------7----------------7-------------7----3/5-|
|--------------------------------------------------------------|x1
|-1-000--5-000--1-000--5-00-1/3--1-000--5-000--1-000--5-00-1/3-|
|-1-000----000--1-000----00-1/3--1-000----000--1-000----00-----|
    ..     ..     ..     ..        ..     ..     ..     ..

|-----------------------------------------------------------------|
|-----------------------------------------------------------------|
|--------7-------------7----------------7-------------------------|
|-----------------------------------------------------------------|x1
|-1-000--5-000--1-000--5-00-1/3--1-000--5-000--11111111-4444-3333-|
|-1-000----000--1-000----00-1/3--1-000----000--11111111-4444-3333-|
    ..     ..     ..     ..        ..     ..   ........ .... ....

|--------------------------------------------------------------------|
|--------------------------------------------------------------------|
|--------------------------------------------------------------------|
|--------------------------------------------------------------------|x2
|-1-0000--1-0000--1-0000--1-0000--1-0000--1-0000--11111111-4444-3333-|
|-1-0000--1-0000--1-0000--1-0000--1-0000--1-0000--11111111-4444-3333-|
  . ....  . ....  . ....  . ....  . ....  . ....  ........ .... ....

|----------|
|----------|
|----------|
|-0----0---|x1
|-0----0---|
|-0----0---|
Tap to rate this tab
 
# A B C D E F G H I J K L M N O P Q R S T U V W X Y Z