Song name
# A B C D E F G H I J K L M N O P Q R S T U V W X Y Z

Parkway Drive - Sleepwalker tab

Sleepwalker
Parkway Drive
Deep Blue
2010
Epitaph

Tabbed by Daniel from Cities of Refuge

|------------------------------------|
|------------------------------------|
|------------------------------------|
|------------------------------------|
|-5p0------5p0------5p0------7p0-7h8-|
|-----0000-----0000-----0000---------|4x
pm    ....     ....     ....

||-----------------------------------------------------------------------|
||-----------------------------------------------------------------------|
||-----------------------------------------------------------------------|
||-----------------------------------------------------------------------|
||-------------101010-------------121212-----777-888-777-888-777-555-333-|
||-000-000-000--------000-000-000--------000-----------------------------|
|pm... ... ... . . .  ... ... ... . . .  ... ... ... ... ... ... ... ...

|-----------------------------------------------------------------------||
|-----------------------------------------------------------------------||
|-----------------------------------------------------------------------||
|-----------------------------------------------------------------------||
|-------------101010-------------121212-----777-888-777-888-777-555-333-||
|-000-000-000--------000-000-000--------000-----------------------------||
pm... ... ... . . .  ... ... ... . . .  ... ... ... ... ... ... ... ...	 |2x

|------------------------------------|
|------------------------------------|
|------------------------------------|
|------------------------------------|
|-5p0------5p0------5p0------7p0-7h8-|
|-----0000-----0000-----0000---------|4x
pm    ....     ....     ....

|--------------------------------------|
|--------------------------------------|
|--------------------------------------|
|--------------------------------------|
|-5-00-00-00-00-00-5-00-00-00-0-7-8-10-|
|-5-00-00-00-00-00-5-00-00-00----------|
pm  .. .. .. .. ..   .. .. ..

|---------------------------------------------------------------|
|---------------------------------------------------------------|
|---------------------------------------------------------------|
|---------------------------------------------------------------|
|-------------555-------------888--0-5-7-0-8-10-0-10-12-0-5-8p7-|
|-000-000-000-----000-000-000-----------------------------------|3x
pm... ... ... ... ... ... ... ...

|-----------------------------------------------------------------|
|-----------------------------------------------------------------|
|-----------------------------------------------------------------|
|-----------------------------------------------------------------|
|-------------555-------------888-----777-888-777-888-777-555-333-|
|-000-000-000-----000-000-000-------------------------------------|
pm... ... ... ... ... ... ... ...     ... ... ... ... ... ... ...

||-----------------------------------------------------------------------|
||-----------------------------------------------------------------------|
||-----------------------------------------------------------------------|
||-----------------------------------------------------------------------|
||-------------101010-------------121212-----777-888-777-888-777-555-333-|
||-000-000-000--------000-000-000--------000-----------------------------|
|pm... ... ... . . .  ... ... ... . . .  ... ... ... ... ... ... ... ...

|-----------------------------------------------------------------------||
|-----------------------------------------------------------------------||
|-----------------------------------------------------------------------||
|-----------------------------------------------------------------------||
|-------------101010-------------121212-----777-888-777-888-777-555-333-||
|-000-000-000--------000-000-000--------000-----------------------------||
pm... ... ... . . .  ... ... ... . . .  ... ... ... ... ... ... ... ...	 |2x

|-------------------------------------|
|-------------------------------------|
|-10~---9~------10~------9~-----------|
|-------------------------------------|
|--8~-0-7~-00----6~-00-0-7~-00-0-00-0-|
|-----0----00-------00-0----00-0-00-0-|
pm    .    ..       .. .    .. . .. .

|---------------------------------------------------|
|---------------------------------------------------|
|-10~------9~-----------------10~------9~-----------|
|---------------------------------------------------|
|--8~-00-0-7~-00-0-00-0--00-0--8~-00-0-7~-00-0-00-0-|
|-----00-0----00-0-00-0--00-0-----00-0----00-0-00-0-|2x
pm    .. .    .. . .. .  ..       .. .    .. . .. .

|------------------------------------|
|------------------------------------|
|------------------------------------|
|------------------------------------|
|-5p0------5p0------5p0------7p0-7h8-|
|-----0000-----0000-----0000---------|3x
pm    ....     ....     ....

|-----------------------|
|-----------------------|
|-----------------------|
|-----------------------|
|-5p0------5p0------5p0-|
|-----0000-----0000-----|
pm    ....     ....

|------------------------------------|
|------------------------------------|
|------------------------------------|
|------------------------------------|
|-5p0------5p0------5p0------7p0-7h8-|
|-----0000-----0000-----0000---------|7x
pm    ....     ....     ....

|--------------------------------|
|--------------------------------|
|--------------------------------|
|--------------------------------|
|-5p0------5p0------5p0------7p0-|
|-----0000-----0000-----0000-----|
pm    ....     ....     ....

|-----------------------------|
|-----------------------------|
|-10-9-7~-7\9\10/9\12/10/9/7~-|
|-----------------------------|
|--8-7-5~-5\7\\8/7\10//8/7/5~-|
|-----------------------------|2x

|----18-17-15-18-17-15-18-17-15-17p15-----|
|-15----------------------------------18~-|
|-----------------------------------------|
|-----------------------------------------|
|-----------------------------------------|
|-----------------------------------------|

|--------------------------------|
|-18p17-18p17-15-18p17-18p17-----|
|----------------------------14~-|
|--------------------------------|
|--------------------------------|
|--------------------------------|

|------------------------------------------------------|
|------------------------------------------------------|
|-12h14p12-15p14-12-10-10p9-----------------------12b~-|
|---------------------------12~-10-12p10-12p10-10------|
|------------------------------------------------------|
|------------------------------------------------------|

|----------------------------13"15"17~-17p15p13----|
|-------------------13"15"17"-------------------17-|
|----------12"14"15"-------------------------------|
|-12"14"15"----------------------------------------|
|--------------------------------------------------|
|--------------------------------------------------|

|-13-17p15p13-17p15p13-17p15p13-17p15p13-17p15p13-17p15p13-----|
|----------------------------------------------------------17~-|
|--------------------------------------------------------------|
|--------------------------------------------------------------|
|--------------------------------------------------------------|
|--------------------------------------------------------------|

|-17p15-17p15----17p15-17p15-----|
|-------------15-----------------|
|----------------------------14~-|
|--------------------------------|
|--------------------------------|
|--------------------------------|

|-------------------------------------------------|
|-18h20p18-18h20p18-17h18p17-17h18h17-15h17p15-17~|
|-------------------------------------------------|
|-------------------------------------------------|
|-------------------------------------------------|
|-------------------------------------------------|

|---------------------------------------|
|---------------------------------------|
|--------------------12h14--------------|
|-15h17-14h15-14p12~-------14h15-14p12~-|
|---------------------------------------|
|---------------------------------------|continue til Fadeout

Notes:

This is only the lead guitar. During the solo the second guitar does the power cord 
part just before the solo. I'm surprised no one really has the solo down yet...

/ = slide down
\ = slide up
h = hammer on
p = pull off
~ = sustain
b = bend
" = alternate pick
pm indicates palm muting
Tap to rate this tab
# A B C D E F G H I J K L M N O P Q R S T U V W X Y Z